Oops, an error
Loading. Please wait.

Kielbasa Tab

version 1
version 1
96,476 views 36 this week
5 commentsread comments
1 2 3 4 5
x 24
add to favorites
launch autoscroll
font size
0
reset
how to read this tab
guitar tuner
Autoscroll
slow
fast
+/-
esc
set tempo
stop
Help us to improve Ultimate-Guitar.com Take our survey!
×
e|----------------------------------------|
B|--------------------------1---1-1-------|
G|------3(bend)-0-3(bend)-0-0h2-0-0-------|
D|------0-------0-0-------0-3---3-0h2p0---|
A|--------------------------------3-------|
E|--3-3-----------------------------------|

e|----------------------------------------|
B|--------------------------------1---1---|
G|------1-----3(bend)-0-3(bend)-0-0h2-0---|
D|---0h2------0-------0-0-------0-3---3---|
A|--3-------------------------------------|
E|--------3-3-----------------------------|

e|----------------------------------------|
B|--1---------------------------1---1-----|
G|--0-------3(bend)-0-3(bend)-0-0h2-0-----|
D|--0h2-----0-------0-0-------0-3---3-----|
A|--3-------------------------------------|
E|------3-3-------------------------------|

e|----------------------------------------|
B|--1-----------------------------1---1---|
G|--0---------0-------------------0h2-0---|
D|--0h2p0--0h2--------------------3---3---|
A|--3-----3-------2-2h3-2---2-------------|
E|--------------3---------5---3-1---------|

e|----------------------------------------|
B|--1-------------------------------------|
G|--0-------------------------------------|
D|--0h2----------(Repeat once)------------|
A|--3-------------------------------------|
E|----------------------------------------|

************************************

| h  Hammer-on
| p  Pull-off

************************************
Suggest correction
comments
print report bad tab
5 comments total. Showing first comments.
-1 reply
Dmannn12345 10 Dec 05, 2002 12:00 AM

add this riff.....


---6-6-6-6-6--------------------------
---8-8-8-8-8-8-8-10-8-----------------
----------------------10h9--7p5-7------
--------------------------------------
--------------------------------------
--------------------------------------

--------------------------------------
-------5-----5\6\5-3------------------
-----3-----3--------------------------
---5-----5----------------------------
--------------------------------------
--------------------------------------

0 reply
jesusranch 30 Mar 14, 2005 12:00 AM

sweet

-1 reply
CrosseGod18 464 Jan 11, 2006 06:51 PM

It seems like your missing some notes on the intro, good job otherwise

guest
You may want to rate the tab now too:
select rating
Wanna post a correction for this tab? Suggest correction