Oops, an error
Loading. Please wait.

Kyle Took A Bullet For Me Chords

version 1
version 1

Whole song

Interactive

21,925 views 15 this week
3 commentsread comments
1 2 3 4 5
x 17
add to favorites
launch autoscroll
font size
0
reset
transpose
0
reset
display chords
guitar tuner
Autoscroll
slow
fast
+/-
esc
set tempo
stop
Help us to improve Ultimate-Guitar.com Take our survey!
×
This is the song that is on the tenacious d master works dvd on one of the hbo episodes
called angel in discuise. The other version is not wright and if you have the dvd you
will find its not even close this version is correct!
the d rock wooooooooooooo !



e-2----|-5----|-x----|-3----|-x----|-2----|
b-3----|-6----|-5----|-5----|-3----|-3----|
g-2----|-5----|-6----|-5----|-4----|-2----|
d-0----|-0----|-7----|-0----|-5----|-0----|
a-x----|-x----|-x----|-x----|-x----|-x----|
e-x----|-x----|-x----|-x----|-x----|-x----|


jack : Kyle took a bullet for me                 Now I got to rock for three

jack : K.G. and me        Don't forget about Tenacious D

kyle : I took a bullet for J.B.                 Now I'm in heaven and I can see
jack : Your decision to rescue me
kyle : Was definitely Boops McGee

jack : Oh wait, no, K.G., I disagree 
kyle : why 
jack : Your decision to rescue me
kyle : Yeah?
jack : Was a decision that set you free
kyle : Was definitely Boops McGee

jack : Wait this is fuckin' with my head  I totally-ly thought you was dead
kyle : Just remember what you said       My medallion's made of bulletproof lead

singing at the same time 2 people
jack : Kyle took a bullet for me             Now I got to rock for three
kyle : I took a bullet for J.B.              Now I'm in heaven and I can see
jack : K.G. and me               Don't forget about Tenacious D !!!!
kyle : Oh no, Oh no              Don't forget about Tenacious D !!!!



well thats it you will have to listen to it to get the hang of it so  buy tenacious d
master works go to the HBO  episode angel in discuise its finishes on the song rock on!
                                    tom cusden !!
Suggest correction
comments
print report bad tab
3 comments total.
0 reply
isabiggles 80 Mar 03, 2007 03:26 PM

not quite 4 stars. i think the first two chords need some hammer ons like this. 2h3
3
2 same with the other.

0 reply
re_rock0202 83 Aug 14, 2007 11:27 AM

hey man good tab i was going to write it but i saw your and thought id just tell you a few things

-the first chord he plucks all the way down and then hammers the last note like...
---------2---2h3----------
-------3------------------
-----2--------------------
---0----------------------

-and then i think the ending is


---2h3p2---2h3p2--2h3p2--3----2---------(x2)
---3-------3------3------3----3---------
---2-------2------2------2----2---------
----------------------------------------
----------------------------------------

+1 reply
k2bandit7 10 Sep 11, 2008 04:58 PM

Good Tab except i think

----x---- SHOULD BE ----3----
----3---- ----3----
----4---- ----4----
----5---- ----0----
----x---- ----x----
----x---- ----x----

and yeah do the bendy at the end, and hammer on's like Re Rock0202 says
boo ya

guest
You may want to rate the tab now too:
select rating
Wanna post a correction for this tab? Suggest correction