Oops, an error
Loading. Please wait.

Lee Bass Tab

version 1
version 1

Whole song

Interactive

1,445 views 1 this week
no commentswrite comment
1 2 3 4 5
1 last vote to show rating
add to favorites
launch autoscroll
font size
0
reset
guitar tuner
Autoscroll
slow
fast
+/-
esc
set tempo
stop
Help us to improve Ultimate-Guitar.com Take our survey!
×
Song: Lee
Artist: Tenacious D
Tabbed by: Zook (burritoboy123@aol.com)

Notes: Long Live the D! This song rocks. Bass plays the same 
      notes throughout, only with different rhythms as the song
      builds in tempo. 

     . = staccato 

 Intro
G-----------------------------------------------------------------
D-----------------------------------------------------------------
A-5-5-5-5-5-5-5-5-3-3-3-3-3-3-3-3-1-1-1-1-1-1-1-1-3-3-3-3-3-3-3-3-
E-----------------------------------------------------------------
 |__crescendo____________________________________________________|

 Verse
G-----------------------------------------------------------------
D----------------------------------------------------------------- play
A-5-5-5-5-5-5-5-5-3-3-3-3-3-3-3-3-1-1-1-1-1-1-1-1-3-3-3-3-3-3-3-3- 4x
E-----------------------------------------------------------------

 Chorus
G----------------------------------------------------------
D---------------------------------------------------------- play once
A-/17-17-17\-15-15-15\-1313131313131313/15151515151515\----
E----------------------------------------------------------
   |___3___| |___3___| 

G-----------------------------------------------------------------
D----------------------------------------------------------------- play
A-5-5-5-5-5-5-5-5-3-3-3-3-3-3-3-3-1-1-1-1-1-1-1-1-3-3-3-3-3-3-3-3- 2x
E-----------------------------------------------------------------

 Outtro (play each note on the downbeat...HARD!)
G----------------------------------          -----
D---------------------------------- play 2x  -----
A-5-5-5-5-3-3-3-3-1-1-1-1-3-3-3-3--   then   --5\- 
E----------------------------------          -----
  . . . . . . . . . . . . . . . .            "Lee!"


     There it is, the whole 1:02 of it.  Enjoy!
Suggest correction
Give kudos to tab author, rate the tab!
1 2 3 4 5
comments
print report bad tab
guest
You may want to rate the tab now too:
select rating
Wanna post a correction for this tab? Suggest correction