Oops, an error
Loading. Please wait.

Lee Tab

version 1
version 1

Solo

Whole song

Interactive

1,406 views 1 this week
no commentswrite comment
1 2 3 4 5
please rate
add to favorites
launch autoscroll
font size
0
reset
how to read this tab
guitar tuner
Autoscroll
slow
fast
+/-
esc
set tempo
stop
Help us to improve Ultimate-Guitar.com Take our survey!
×
Author
Difficulty
intermediate
I saw no one has the solo up for this song so I just made a quick tab of what I think to 
close, but it's more of a cover of the solo than the actual one.

Lee Solo

|---------------------------------------------------------------------|
|----------------6-5---6-5--------------------------------------------|
|------------5-7-----7-----7-5-7--------------------------------------|
|------7---7---------------------8~-777-5-5h7p5h7p5-3-2-3-0h3p0h3p0h3-|
|5-7-8---8------------------------------------------------------------|
|---------------------------------------------------------------------|

|----------------------------------------------------------------------|
|---------------------5b6-6b7-9b11-9h10p9-8---8-9---9-8-6-8-9-8-6-8-9~-|
|---------------5-7b9-----------------------7-----7--------------------|
|----3-5b6-3/7~--------------------------------------------------------|
|3/5-------------------------------------------------------------------|
|----------------------------------------------------------------------|

|----------------------------------------------------------------------|
|6---6~---6-8-6--------6-5---6-5---6-5-6-8-6-8-6-5-6-5-----------------|
|--7----7---7---7-5-7~-----7-----7---------------------7-5-7-5---5-----|
|--------------------------------------------------------------8---8-7-|
|----------------------------------------------------------------------|
|----------------------------------------------------------------------|
The strumming you can hear, I didn't want to type all the numbers out
|---------------------------------------------------------------------|
|---------------------------------------------------------------------|
|---------------------------------------------------------------------|
|5-7-5----------------------------------------------------------------|
|------8-7~-555555555-777777777-8888888888-10101010101010-17~---------|
|---------------------------------------------------------------------|
Suggest correction
What's this?
You can suggest a correction to this tab. Community and Mods will review your correction and vote to approve or reject it.
comments
We did not receive enough feedback on this tab! Please rate:
print report bad tab
1 2 3 4 5
guest
You may want to rate the tab now too:
select rating
Please do not post tabs as comments. Select "correction" instead!