Oops, an error
Loading. Please wait.

Lee Tab

version 1
version 1

Whole song

Interactive

22,433 views 12 this week
2 commentsread comments
1 2 3 4 5
excellent!
x 3
add to favorites
launch autoscroll
font size
0
reset
how to read this tab
guitar tuner
Tab Pro tools
  • play this tab
  • loop segment
  • change instrument
  • show fretboard
  • metronome
×
Best way to learn
"Lee"
Autoscroll
slow
fast
+/-
esc
set tempo
stop
Contributor
Difficulty
intermediate
Try this out, if you find fixes, please edit this file and put it back on Ultimate-Guitar.



     H.           E  E     H.           E  E     H.           E  E   
E||---------------------|---------------------|---------------------|
B||--7------------x--x--|--5------------x--x--|--3------------x--x--|
G||--7------------x--x--|--5------------x--x--|--3------------x--x--|
D||--7------------x--x--|--5------------x--x--|--3------------x--x--|
A||--5------------x--x--|--3------------x--x--|--1------------x--x--|
E||---------------------|---------------------|---------------------|


                       Lee                   Lee                 
  H.           Q       H.           E  E     H.           E  E   
--------------------|---------------------|---------------------|
--5------------x----|--7------------x--x--|--5------------x--x--|
--5------------x----|--7------------x--x--|--5------------x--x--|
--5------------x----|--7------------x--x--|--5------------x--x--|
--3------------x----|--5------------x--x--|--3------------x--x--|
--------------------|---------------------|---------------------|


  Lee                   Lee                
  H.           E  E     H.           Q     
---------------------|--------------------|
--3------------x--x--|--5------------x----|
--3------------x--x--|--5------------x----|
--3------------x--x--|--5------------x----|
--1------------x--x--|--3------------x----|
---------------------|--------------------|


  Lee Lee Lee Lee Lee Lee Lee Lee Lee                    
  Q                                   E  Q    E  E  S S  
--------------------------------------------------------|
--7-----------------------------------7--7----7--7------|
--7-----------------------------------7--7----7--7--0-0-|
--7-----------------------------------7--7----7--7--0-0-|
--5-----------------------------------5--5----5--5--0-0-|
--------------------------------------------------------|


                            We're talkin' fuckin' Lee                    
  Q    E  Q    E  E  S S    Q                         E  Q    E  E  S S  
-------------------------|----------------------------------------------|
--5----5--5----5--5------|--3-------------------------3--3----3--3------|
--5----5--5----5--5--0-0-|--3-------------------------3--3----3--3--0-0-|
--5----5--5----5--5--0-0-|--3-------------------------3--3----3--3--0-0-|
--3----3--3----3--3--0-0-|--1-------------------------1--1----1--1--0-0-|
-------------------------|----------------------------------------------|


                            I had a friend named Lee                    
  Q    E  Q    E  E  S S    Q                        E  Q    E  E  S S  
-------------------------|---------------------------------------------|
--5----5--5----5--5------|--7------------------------7--7----7--7------|
--5----5--5----5--5--0-0-|--7------------------------7--7----7--7--0-0-|
--5----5--5----5--5--0-0-|--7------------------------7--7----7--7--0-0-|
--3----3--3----3--3--0-0-|--5------------------------5--5----5--5--0-0-|
-------------------------|---------------------------------------------|


                            He cast a spell a spell on me                    
  Q    E  Q    E  E  S S    Q                             E  Q    E  E  S S  
-------------------------|--------------------------------------------------|
--5----5--5----5--5------|--3-----------------------------3--3----3--3------|
--5----5--5----5--5--0-0-|--3-----------------------------3--3----3--3--0-0-|
--5----5--5----5--5--0-0-|--3-----------------------------3--3----3--3--0-0-|
--3----3--3----3--3--0-0-|--1-----------------------------1--1----1--1--0-0-|
-------------------------|--------------------------------------------------|


  Q    E  Q    E  E  S S  
-------------------------|
--5----5--5----5--5------|
--5----5--5----5--5--0-0-|
--5----5--5----5--5--0-0-|
--3----3--3----3--3--0-0-|
-------------------------|


  If me and Lee and KG could be three                    
  Q                                   E  Q    E  E  S S  
--------------------------------------------------------|
--7-----------------------------------7--7----7--7------|
--7-----------------------------------7--7----7--7--0-0-|
--7-----------------------------------7--7----7--7--0-0-|
--5-----------------------------------5--5----5--5--0-0-|
--------------------------------------------------------|


                            Flyin' free Tenacious Lee                    
  Q    E  Q    E  E  S S    Q                         E  Q    E  E  S S  
-------------------------|----------------------------------------------|
--5----5--5----5--5------|--3-------------------------3--3----3--3------|
--5----5--5----5--5--0-0-|--3-------------------------3--3----3--3--0-0-|
--5----5--5----5--5--0-0-|--3-------------------------3--3----3--3--0-0-|
--3----3--3----3--3--0-0-|--1-------------------------1--1----1--1--0-0-|
-------------------------|----------------------------------------------|


                            Skinny-dippin' in a sea of Lee                    
  Q    E  Q    E  E  S S    Q                              E  Q    E  E  S S  
-------------------------|---------------------------------------------------|
--5----5--5----5--5------|--7------------------------------7--7----7--7------|
--5----5--5----5--5--0-0-|--7------------------------------7--7----7--7--0-0-|
--5----5--5----5--5--0-0-|--7------------------------------7--7----7--7--0-0-|
--3----3--3----3--3--0-0-|--5------------------------------5--5----5--5--0-0-|
-------------------------|---------------------------------------------------|


                            I'd propose on bended knee                    
  Q    E  Q    E  E  S S    Q                          E  Q    E  E  S S  
-------------------------|-----------------------------------------------|
--5----5--5----5--5------|--3--------------------------3--3----3--3------|
--5----5--5----5--5--0-0-|--3--------------------------3--3----3--3--0-0-|
--5----5--5----5--5--0-0-|--3--------------------------3--3----3--3--0-0-|
--3----3--3----3--3--0-0-|--1--------------------------1--1----1--1--0-0-|
-------------------------|-----------------------------------------------|


                            To Lee Lee Lee, Lee Lee Lee                        
                            >                                 >        >       
  Q    E  Q    E  E  S S    E                           E  E  E  E  E  E  S S  
-------------------------|----------------------------------------------------|
--5----5--5----5--5------|----------------------------------------------------|
--5----5--5----5--5--0-0-|--7---------------------------7--7--7--7--7--7--0-0-|
--5----5--5----5--5--0-0-|--7---------------------------7--7--7--7--7--7--0-0-|
--3----3--3----3--3--0-0-|--5---------------------------5--5--5--5--5--5--0-0-|
-------------------------|----------------------------------------------------|


  >        >        >                                                  
  E  E  E  E  E  E  E  S S    H.           Q        H.           Q     
---------------------------|---------------------|--------------------|
---------------------------|---------------------|--------------------|
--5--5--5--5--5--5--5--0-0-|--3------------3S----|--5------------5----|
--5--5--5--5--5--5--5--0-0-|--3------------3S----|--5------------5----|
--3--3--3--3--3--3--3--0-0-|--1------------1S----|--3------------3----|
---------------------------|---------------------|--------------------|


  If me, and Lee, and KG, (that's me)                        
  >                                         >        >       
  E                                   E  E  E  E  E  E  S S  
------------------------------------------------------------|
------------------------------------------------------------|
--7-----------------------------------7--7--7--7--7--7--0-0-|
--7-----------------------------------7--7--7--7--7--7--0-0-|
--5-----------------------------------5--5--5--5--5--5--0-0-|
------------------------------------------------------------|


  >        >        >       
  E  E  E  E  E  E  E  S S  
---------------------------|
---------------------------|
--5--5--5--5--5--5--5--0-0-|
--5--5--5--5--5--5--5--0-0-|
--3--3--3--3--3--3--3--0-0-|
---------------------------|


  Could be three, (could be three)                        
  >                                      >        >       
  E                                E  E  E  E  E  E  S S  
---------------------------------------------------------|
---------------------------------------------------------|
--3--------------------------------3--3--3--3--3--3--0-0-|
--3--------------------------------3--3--3--3--3--3--0-0-|
--1--------------------------------1--1--1--1--1--1--0-0-|
---------------------------------------------------------|


  >        >        >       
  E  E  E  E  E  E  E  S S  
---------------------------|
---------------------------|
--5--5--5--5--5--5--5--0-0-|
--5--5--5--5--5--5--5--0-0-|
--3--3--3--3--3--3--3--0-0-|
---------------------------|


  Plant a tree, (plant a tree)                        
  >                                  >        >       
  E                            E  E  E  E  E  E  S S  
-----------------------------------------------------|
-----------------------------------------------------|
--7----------------------------7--7--7--7--7--7--0-0-|
--7----------------------------7--7--7--7--7--7--0-0-|
--5----------------------------5--5--5--5--5--5--0-0-|
-----------------------------------------------------|


  >        >        >       
  E  E  E  E  E  E  E  S S  
---------------------------|
---------------------------|
--5--5--5--5--5--5--5--0-0-|
--5--5--5--5--5--5--5--0-0-|
--3--3--3--3--3--3--3--0-0-|
---------------------------|


  Just for Lee, (just for Lee)                        
  >                                  >        >       
  E                            E  E  E  E  E  E  S S  
-----------------------------------------------------|
-----------------------------------------------------|
--3----------------------------3--3--3--3--3--3--0-0-|
--3----------------------------3--3--3--3--3--3--0-0-|
--1----------------------------1--1--1--1--1--1--0-0-|
-----------------------------------------------------|


                              Just for Lee!                           
  >        >        >         >                 >      >      >       
  E  E  E  E  E  E  E  S S    E             S S E  S S E  S S E  S S  
---------------------------|-----------------------------------------|
---------------------------|-----------------------------------------|
--5--5--5--5--5--5--5--0-0-|--7-----------------7------7------7------|
--5--5--5--5--5--5--5--0-0-|--7-------------0-0-7--0-0-7--0-0-7--0-0-|
--3--3--3--3--3--3--3--0-0-|--5-------------0-0-5--0-0-5--0-0-5--0-0-|
---------------------------|-----------------------------------------|


  >      >      >      >         >      >      >      >       
  E  S S E  S S E  S S E  S S    E  S S E  S S E  S S E  S S  
------------------------------|------------------------------|
------------------------------|------------------------------|
--5------5------5------5------|--3------3------3------3------|
--5--0-0-5--0-0-5--0-0-5--0-0-|--3--0-0-3--0-0-3--0-0-3--0-0-|
--3--0-0-3--0-0-3--0-0-3--0-0-|--1--0-0-1--0-0-1--0-0-1--0-0-|
------------------------------|------------------------------|


  >      >      >      >         >      >      >      >       
  E  S S E  S S E  S S E  S S    E  S S E  S S E  S S E  S S  
------------------------------|------------------------------|
------------------------------|------------------------------|
--5------5------5------5------|--7------7------7------7------|
--5--0-0-5--0-0-5--0-0-5--0-0-|--7--0-0-7--0-0-7--0-0-7--0-0-|
--3--0-0-3--0-0-3--0-0-3--0-0-|--5--0-0-5--0-0-5--0-0-5--0-0-|
------------------------------|------------------------------|


  >      >      >      >         >      >      >      >       
  E  S S E  S S E  S S E  S S    E  S S E  S S E  S S E  S S  
------------------------------|------------------------------|
------------------------------|------------------------------|
--5------5------5------5------|--3------3------3------3------|
--5--0-0-5--0-0-5--0-0-5--0-0-|--3--0-0-3--0-0-3--0-0-3--0-0-|
--3--0-0-3--0-0-3--0-0-3--0-0-|--1--0-0-1--0-0-1--0-0-1--0-0-|
------------------------------|------------------------------|


                                 Woah Lee!                                      
  >      >      >      >                                                        
  E  S S E  S S E  S S E  S S    Q         Q     H           W                  
------------------------------|---------------------------|-------------------||
------------------------------|---------------------------|-------------------||
--5------5------5------5------|--7---------L\-------------|-------------------||
--5--0-0-5--0-0-5--0-0-5--0-0-|--7---------L\-------------|-------------------||
--3--0-0-3--0-0-3--0-0-3--0-0-|--5---------L\-------------|-------------------||
------------------------------|---------------------------|-------------------||




Duration Legend
---------------
W - whole
H - half
Q - quarter
E - 8th
S - 16th
comments
We did not receive enough feedback on this tab! Please rate:
print report bad tab
1 2 3 4 5
2 comments total.
+1 reply
GODhimself37 wrote on November 18 2010, 02:37 am

never before has 3 power chords repeated in order created such an amazing song

0 reply
sjon.wardle wrote on February 24 2015, 09:07 pm

but what about the second guitar that plays palm muted single notes?

I want to post or [tab]
guest
You may want to rate the tab now too:
select rating
Please do not post tabs as comments. Select "correction" instead!