Oops, an error
Loading. Please wait.

Master Exploder Bass Tab

version 1
version 1

Whole song

17,851 views 6 this week
5 commentsread comments
1 2 3 4 5
x 10
add to favorites
launch autoscroll
font size
0
reset
guitar tuner
Autoscroll
slow
fast
+/-
esc
set tempo
stop
Help us to improve Ultimate-Guitar.com Take our survey!
×
Author
Difficulty
novice
Song Title: Master Exploder
Artist Name: Tenacious D
Tabbed By: Danger Lobes
E-mail: bigjon0421@bellsouth.net

This song is one of the coolset songs by Tenacious D in my opinion. My friend knew how
play it on guitar and I figured out the bass for the song. I do not believe that there is
bass in this song, like very many other Tenacious D songs, but i really don't care. The 
makes it sound a whole lot better. So here it is and enjoy!

INTRO:
G|-----------------------------|
D|-----------------------------|
A|-77777777~--------5----------|
E|--------------3-3---5-5--7---|

VERSE: (same as intro)
G|-----------------------------|
D|-----------------------------|
A|-77777777~--------5----------|
E|--------------3-3---5-5--7---|

Continue to play this main riff. During the movie, the whole look and atmosphere of the
gradually gets more heavy and cooler. So at 1:12, you can add any distortion you think
right with the heaviness of the song. I personally use a big muff which sounds excellent 
me. While you're playing this song, continue to keep on playing the main riff....

....Until here at 2:15


BREAKDOWN:
G|--------------------------------|
D|--------------------------------|
A|-777-----555-----333------------|
E|-----777-----555-----333-33320--|

That's just about it for this song. Fairly easy song to play so i hope you enjoy playing
song. If you have any questions, please contact me at my e-mail address listed at the
of the page. HAPPY ROCKING!!!!!
Suggest correction
comments
print report bad tab
5 comments total. Showing first comments.
0 reply
gregster 10 Apr 21, 2007 10:11 PM

this sucks from unknown

0 reply
BlackCow 10 Jun 28, 2007 05:04 PM

Its ok, it works.

0 reply
Fredrikorex 10 Mar 05, 2009 07:40 AM

G|-----------------------------|
D|-----------------------------|
A|-77777777~--77----5----------|
E|--------------3-3---5-5--7---|

guest
You may want to rate the tab now too:
select rating
Wanna post a correction for this tab? Suggest correction