Oops, an error
Loading. Please wait.

Master Exploder Tab

version 1
version 1
267,930 views 84 this week
8 commentsread comments
1 2 3 4 5
x 11
add to favorites
launch autoscroll
font size
0
reset
how to read this tab
guitar tuner
Autoscroll
slow
fast
+/-
esc
set tempo
stop
Help us to improve Ultimate-Guitar.com Take our survey!
×
Author
Difficulty
intermediate
 |This part is played all through|
e|---------------|-------------|---------|-------|---------12------12---------------|
B|---------------|-------------|---------|-------|------------12---------15p-12-----|
G|---------------|-------------|---------|-------|--14b-------------------------14--|
D|-9-9-9-9-9-x-x-|-------------|7---9----|-------|----------------------------------|
A|-7-7-7-7-7-x-x-|-5-5-5-5-x-x-|5-7-7----|-------|----------------------------------|
E|---------------|-3-3-3-3-x-x-|--5------|-------|----------------------------------|

e|----------------------------------------|---------12-----12---------------|
B|----------------------------------------|------------12--------15p-12-----|
G|--14b--14--12------12--14b--14p-12-14b--|--14b------------------------14--|
D|---------------14-----------------------|---------------------------------|
A|----------------------------------------|---------------------------------|
E|----------------------------------------|---------------------------------|

e|---x-15----15-17p-15----15-17p-15----15-17p-15----15-|
B|--------17-----------17-----------17-----------17----|
G|-----------------------------------------------------|
D|-----------------------------------------------------|
A|-----------------------------------------------------|
E|-----------------------------------------------------|

e|---------17p-15------------15-17p-15------------15-|
B|--15b-----------17p-15h-17-----------17p-15h-17----|
G|---------------------------------------------------|
D|---------------------------------------------------|
A|---------------------------------------------------|
E|---------------------------------------------------|
                          
e|--17p-15------------15-17p-15------------15------|
B|---------17p-15h-17-----------17p-15h-17----12\--|
G|-------------------------------------------------|
D|-------------------------------------------------|
A|-------------------------------------------------|
E|-------------------------------------------------|

************************************

| p  Pull-off
| b  Bend
| x  Dead note
| h  Hammer-on
| \  Slide down

************************************
Suggest correction
comments
print report bad tab
8 comments total. Showing first comments.
0 reply
rider of pigs 10 Mar 29, 2007 05:03 PM

shit. the song isn't in pow chords you doosh

0 reply
jeremytabs 30 Jul 28, 2007 01:31 AM

Lol

0 reply
jeremytabs 30 Jul 28, 2007 01:32 AM

really, strange.

guest
You may want to rate the tab now too:
select rating
Wanna post a correction for this tab? Suggest correction