Oops, an error
Loading. Please wait.

Master Exploder Tab

version 2
version 2
412,175 views 120 this week
38 commentsread comments
1 2 3 4 5
accurate
x 78
add to favorites
launch autoscroll
font size
0
reset
how to read this tab
guitar tuner
Autoscroll
slow
fast
+/-
esc
set tempo
stop
Help us to improve Ultimate-Guitar.com Take our survey!
×
Author
Difficulty
intermediate
tab by 169290 for gp version of this go to my account thing its sumwhere on there
all guitars (1,2,3,4) normal tuning (EADGBE)

 
[Intro]

guitar 1

      S S S S S S S S Q    T T T T T T T T  
e|----------------------------------------|        )
B|----------------------------------------|        )
G|----------------------------------------|        )
D|---9-9-9-9-9-9-9-9-9----x---x---x---x---|        ) 
A|---7-7-7-7-7-7-7-7-7----x---x---x---x---|        )
E|---0-0-0-0-0-0-0-0-0----x---x---x---x---|        )
                                                    )
                                                    )   X5 (solo starts at x3)
    E  E  T S. Q    E  E  E                           )
e|----------------------------|                       ) 
B|----------------------------|                       )
G|-------------7--------------|                       )
D|--5--5--x----7----7--7--9---|                       )
A|--5--5--x----5----7--7--9---|                       )
E|--3--3--x---------5--5--7---|                       )


[Solo 1]

guitar 2

     S   E.   S  E.   Q     E   S S  
e|-----------12------12-------------|
B|--10s-12------12---------12-------|
G|-----------------------------12-9-|
D|----------------------------------|
A|----------------------------------|
E|----------------------------------|


     E.   S E   E   E   S  S  S  S  S  S  
e|------------------------12-10----10----|
B|--10-------------10--12-------12----12-|
G|-------12-9--12------------------------|
D|---------------------------------------|
A|---------------------------------------|
E|---------------------------------------|


     S   E.   S  E.   Q     E   S  S  
e|-----------12------12--------------|
B|--10s-12------12---------12--------|
G|-----------------------------12----|
D|--------------------------------14-|
A|-----------------------------------|
E|-----------------------------------|


     S  S  S  S  S  S  S  S  S  S  S  S  S  S  S  S  
e|-----17-15----17----15-17-15----17----15-17-15----|
B|--17-------17----17----------17----17----------17-|
G|--------------------------------------------------|
D|--------------------------------------------------|
A|--------------------------------------------------|
E|--------------------------------------------------|


     Q      S  S  S  S  S  S  S  S  S  S  S  S  
e|------------17----------14----------15-------|
B|--15b----17----17-15-17----17-15-17----17-15-|
G|---------------------------------------------|
D|---------------------------------------------|
A|---------------------------------------------|
E|---------------------------------------------|


     S  S  S  S  S  S  S  S  S  S  S  S  E.   S  
e|-----17----------14---------------------------|
B|--17----17-15-17----17-15-17-15---------------|
G|--------------------------------16-15---------|
D|--------------------------------------17\---x-|
A|----------------------------------------------|
E|----------------------------------------------|


[Verse]

guitar 1


      S S S S S S S S Q    T T T T T T T T  
e|----------------------------------------|        )
B|----------------------------------------|        )
G|----------------------------------------|        )
D|---9-9-9-9-9-9-9-9-9----x---x---x---x---|        ) 
A|---7-7-7-7-7-7-7-7-7----x---x---x---x---|        )
E|---0-0-0-0-0-0-0-0-0----x---x---x---x---|        )
                                                    )
                                                    )   X16 (solo stars at x13)
    E  E  T S. Q    E  E  E                           )
e|----------------------------|                       ) 
B|----------------------------|                       )
G|-------------7--------------|                       )
D|--5--5--x----7----7--7--9---|                       )
A|--5--5--x----5----7--7--9---|                       )
E|--3--3--x---------5--5--7---|                       )


[Solo 2]

guitar 2


    E  E  E  E  E  E  E  E     E  E   E  E  E  E   E  E   
e|--------------------------|----------------------------|
B|--3--3--7--3--5--5--8--5--|--7--7--10--7--8--8--12--8--|
G|--------------------------|----------------------------|
D|--------------------------|----------------------------|
A|--------------------------|----------------------------|
E|--------------------------|----------------------------|


     E   E   E   E   E   E   E   E      W                  
e|----------------------------------|---------------------|
B|--10--10--13--10--12--12--15--12--|--15b----------------|
G|----------------------------------|---------------------|
D|----------------------------------|---------------------|
A|----------------------------------|---------------------|
E|----------------------------------|---------------------|


     W                     S  S S S  S S S S S S S S Q        
e|----------------------|--7---------------------------------|
B|---Lpb----------------|----10-8---10-8-----8---------------|
G|----------------------|---------9------9-----9-------------|
D|----------------------|------------------9-----9-7---------|
A|----------------------|----------------------------9brb----|
E|----------------------|------------------------------------|


    Q     H.                W                                     
e|-----------------------|-------------------|
B|-----------------------|-------------------|
G|-----------------------|-------------------|
D|-----------------------|-------------------|
A|--L-----Lpb------------|--L----------------|
E|-----------------------|-------------------|


[Solo 2]

guitar 3


    E  E  E  E  E  E  E  E   
e|--------------------------|
B|--------------------------|
G|--4--4--7--4--5--5--9--5--|
D|--------------------------|
A|--------------------------|
E|--------------------------|


    E  E   E  E  E  E   E  E      E   E   E   E   E   E   E   E   
e|----------------------------|----------------------------------|
B|----------------------------|----------------------------------|
G|--7--7--11--7--9--9--12--9--|--11--11--14--11--12--12--16--12--|
D|----------------------------|----------------------------------|
A|----------------------------|----------------------------------|
E|----------------------------|----------------------------------|


     W                     W                   
e|---------------------|----------------------|
B|---------------------|----------------------|
G|--14b----------------|---Lpb----------------|
D|---------------------|----------------------|
A|---------------------|----------------------|
E|---------------------|----------------------|


     S  S  S  S  S  S  S  S  S  S  S  S  Q        
e|--12-10-------10-------------------------------|
B|--------12-------12-------12-------------------|
G|-----------12-------12-------12----------------|
D|-----------------------14-------14-12----------|
A|--------------------------------------13brb----|
E|-----------------------------------------------|


    Q     H.                W                                     
e|-----------------------|-------------------|
B|-----------------------|-------------------|
G|-----------------------|-------------------|
D|-----------------------|-------------------|
A|--L-----Lpb------------|--L----------------|
E|-----------------------|-------------------|


[Verse]

      S S S S S S S S Q    T T T T T T T T  
e|----------------------------------------|        )
B|----------------------------------------|        )
G|----------------------------------------|        )
D|---9-9-9-9-9-9-9-9-9----x---x---x---x---|        ) 
A|---7-7-7-7-7-7-7-7-7----x---x---x---x---|        )
E|---0-0-0-0-0-0-0-0-0----x---x---x---x---|        )
                                                    )
                                                    )   x16 (solo stars at x10)
    E  E  T S. Q    E  E  E                           )
e|----------------------------|                       ) 
B|----------------------------|                       )
G|-------------7--------------|                       )
D|--5--5--x----7----7--7--9---|                       )
A|--5--5--x----5----7--7--9---|                       )
E|--3--3--x---------5--5--7---|                       )


[Solo 3]

guitar 2


     S   E.   S  E.   Q     E   S S  
e|-----------12------12-------------|
B|--10s-12------12---------12-------|
G|-----------------------------12-9-|
D|----------------------------------|
A|----------------------------------|
E|----------------------------------|


     E.   S E   E   E   S  S  S  S  S  S  
e|------------------------12-10----10----|
B|--10-------------10--12-------12----12-|
G|-------12-9--12------------------------|
D|---------------------------------------|
A|---------------------------------------|
E|---------------------------------------|


     S   E.   S  E.   Q     E   S  S  
e|-----------12------12--------------|
B|--10s-12------12---------12--------|
G|-----------------------------12----|
D|--------------------------------14-|
A|-----------------------------------|
E|-----------------------------------|


     S  S  S  S  S  S  S  S  S  S  S  S  S  S  S  S  
e|-----17-15----17----15-17-15----17----15-17-15----|
B|--17-------17----17----------17----17----------17-|
G|--------------------------------------------------|
D|--------------------------------------------------|
A|--------------------------------------------------|
E|--------------------------------------------------|


     Q      S  S  S  S  S  S  S  S  S  S  S  S  
e|------------17----------14----------15-------|
B|--15b----17----17-15-17----17-15-17----17-15-|
G|---------------------------------------------|
D|---------------------------------------------|
A|---------------------------------------------|
E|---------------------------------------------|


     S  S  S  S  S  S  S  S  S  S  S  S  E.   S  
e|-----17----------14---------------------------|
B|--17----17-15-17----17-15-17-15---------------|
G|--------------------------------16-15---------|
D|--------------------------------------17\---x-|
A|----------------------------------------------|
E|----------------------------------------------|


     S   E.   S  E.   Q     E   S S  
e|-----------12------12-------------|
B|--10s-12------12---------12-------|
G|-----------------------------12-9-|
D|----------------------------------|
A|----------------------------------|
E|----------------------------------|


     E.   S E   E   E   S  S  S  S  S  S  
e|------------------------12-10----10----|
B|--10-------------10--12-------12----12-|
G|-------12-9--12------------------------|
D|---------------------------------------|
A|---------------------------------------|
E|---------------------------------------|


     S   E.   S  E.   Q     E   S  S  
e|-----------12------12--------------|
B|--10s-12------12---------12--------|
G|-----------------------------12----|
D|--------------------------------14-|
A|-----------------------------------|
E|-----------------------------------|


     S  S  S  S  S  S  S  S  S  S  S  S  S  S  S  S  
e|-----17-15----17----15-17-15----17----15-17-15----|
B|--17-------17----17----------17----17----------17-|
G|--------------------------------------------------|
D|--------------------------------------------------|
A|--------------------------------------------------|
E|--------------------------------------------------|


    S  E.  H.              H         S S  S S  E.   S  
e|----------------------|-----------------------------|
B|----------------------|-----------------------------|
G|--7s-9---L------------|--L--------14---12---11---12-|
D|----------------------|-----------------------------|
A|----------------------|-----------------------------|
E|----------------------|-----------------------------|


     S  H.           E.   
e|-----------------------|
B|-----------------------|
G|--11s-9------------L---|
D|-----------------------|
A|-----------------------|
E|-----------------------|


     S  S  S  S  S  S  S  S  S  S  S  S  S  S  S  S  
e|--------------------------------------------------|
B|--------------------------------------------------|
G|--12-16-11-12-16-11-12-16-11-12-16-11-12-16-11-12-|
D|--------------------------------------------------|
A|--------------------------------------------------|
E|--------------------------------------------------|


[Solo 3]

guitar 3

                    H         E  E  S S S S  
e|-------|-------|---------------------------|
B|-------|-------|---------------------------|
G|-------|-------|--10b--------7--9--9-7-----|
D|-------|-------|-----------------------9-7-|
A|-------|-------|---------------------------|
E|-------|-------|---------------------------|


     S S S S S E.  S  S S S  S S S  S  
e|------------------------------------|
B|------------------------------------|
G|------------------------------------|
D|-----------------7-12-9-7-12-9-7-12-|
A|--10-9------------------------------|
E|-------9-7-2-0----------------------|


    S  S S S  S S S  S S  S S S  S S S  S  
e|----------------------------------------|
B|----------------------------------------|
G|----------------------------------------|
D|--7-12-9-7-12-9-7-12-7-12-9-7-12-9-7-12-|
A|----------------------------------------|
E|----------------------------------------|


    S  S S S  S S S  S S  S S S  S S S  S     H         E  E  S S S S  
e|----------------------------------------|---------------------------|
B|----------------------------------------|---------------------------|
G|----------------------------------------|--10b--------7--9--9-7-----|
D|--7-12-9-7-12-9-7-12-7-12-9-7-12-9-7-12-|-----------------------9-7-|
A|----------------------------------------|---------------------------|
E|----------------------------------------|---------------------------|


     S S S S S E.  S  S S S  S S S  S  
e|------------------------------------|
B|------------------------------------|
G|------------------------------------|
D|-----------------7-12-9-7-12-9-7-12-|
A|--10-9------------------------------|
E|-------9-7-2-0----------------------|


    S  S S S  S S S  S S  S S S  S S S  S  
e|----------------------------------------|
B|----------------------------------------|
G|----------------------------------------|
D|--7-12-9-7-12-9-7-12-7-12-9-7-12-9-7-12-|
A|----------------------------------------|
E|----------------------------------------|


    S  S S S  S S S  S S  S S S  S S S  S     S   E.  H.            
e|----------------------------------------|------------------------|
B|----------------------------------------|--10s-12---L------------|
G|----------------------------------------|------------------------|
D|--7-12-9-7-12-9-7-12-7-12-9-7-12-9-7-12-|------------------------|
A|----------------------------------------|------------------------|
E|----------------------------------------|------------------------|


    H         S S  S S  E.   S     S  H.           E.   
e|-----------------------------|-----------------------|
B|--L--------13---12---10---12-|--10s-9------------L---|
G|-----------------------------|-----------------------|
D|-----------------------------|-----------------------|
A|-----------------------------|-----------------------|
E|-----------------------------|-----------------------|


     S  S  S  S  S  S  S  S  S  S  S  S  S  S  S  S            
e|--------------------------------------------------|
B|--12-15-10-12-15-10-12-15-10-12-15-10-12-15-10-12-|
G|--------------------------------------------------|
D|--------------------------------------------------|
A|--------------------------------------------------|
E|--------------------------------------------------|


[Solo 3]

guitar 4

e|-------|-------|----------------------|-----------------------------|
B|-------|-------|----------------------|-----------------------------|
G|-------|-------|--7s-9---L------------|--L--------14---12---11---12-|
D|-------|-------|----------------------|-----------------------------|
A|-------|-------|----------------------|-----------------------------|
E|-------|-------|----------------------|-----------------------------|


     S  H.           E.   
e|-----------------------|
B|-----------------------|
G|--11s-9------------L---|
D|-----------------------|
A|-----------------------|
E|-----------------------|


     S  S  S  S  S  S  S  S  S  S  S  S  S  S  S  S  
e|--------------------------------------------------|
B|--------------------------------------------------|
G|--12-16-11-12-16-11-12-16-11-12-16-11-12-16-11-12-|
D|--------------------------------------------------|
A|--------------------------------------------------|
E|--------------------------------------------------|


    S  E.  H.              H         S S  S S  E.   S  
e|----------------------|-----------------------------|
B|----------------------|-----------------------------|
G|--7s-9---L------------|--L--------14---12---11---12-|
D|----------------------|-----------------------------|
A|----------------------|-----------------------------|
E|----------------------|-----------------------------|


     S  H.           E.   
e|-----------------------|
B|-----------------------|
G|--11s-9------------L---|
D|-----------------------|
A|-----------------------|
E|-----------------------|


     S  S  S  S  S  S  S  S  S  S  S  S  S  S  S  S                  
e|--------------------------------------------------|
B|--------------------------------------------------|
G|--12-16-11-12-16-11-12-16-11-12-16-11-12-16-11-12-|
D|--------------------------------------------------|
A|--------------------------------------------------|
E|--------------------------------------------------|




      S S S S S S S S Q    T T T T T T T T  
e|----------------------------------------|        )
B|----------------------------------------|        )
G|----------------------------------------|        )
D|---9-9-9-9-9-9-9-9-9----x---x---x---x---|        ) 
A|---7-7-7-7-7-7-7-7-7----x---x---x---x---|        )
E|---0-0-0-0-0-0-0-0-0----x---x---x---x---|        )
                                                    )
                                                    )   X6
    E  E  T S. Q    E  E  E                           )
e|----------------------------|                       ) 
B|----------------------------|                       )
G|-------------7--------------|                       )
D|--5--5--x----7----7--7--9---|                       )
A|--5--5--x----5----7--7--9---|                       )
E|--3--3--x---------5--5--7---|                       )



     S S S S S S S S S S S S S S S S  
e|-----------------------------------|               )
B|-----------------------------------|               )
G|*--9-9-9-----------7-7-7-----------|               )
D|*--9-9-9---9-9-9---7-7-7---7-7-7---|               )
A|---7-7-7---9-9-9---5-5-5---7-7-7---|               )
E|-----------7-7-7-----------5-5-5---|               )
                                                    )
                                                    )
    S S S S S S S S S S S S S S                       )   x2
e|-------------------------------||                   ) 
B|-------------------------------||                   )
G|--5-5-5-----------------------*||                   )
D|--5-5-5---5-5-5---5---4---2---*||                   ) 
A|--3-3-3---5-5-5---5---4---2----||                   )
E|----------3-3-3---3---2---0----||                   )







Duration Legend

***********************

W - whole
H - half
Q - quarter
E - 8th
S - 16th
T - 32nd
X - 64th
. - note dotted
|-n-|  - n-tuplets

***********************



************************************

| x  Dead note
| b  Bend
| \  Slide down
| s  Shift slide
| L  Tied note

************************************
Suggest correction
What's this?
You can suggest a correction to this tab. Community and Mods will review your correction and vote to approve or reject it.
comments
print report bad tab
38 comments total. Showing first comments.
0 reply
methebob 131 wrote on March 15 2007, 09:08 pm

can you pls make a powertab of this =D

+4 reply
Cthulhu_Calls 163 wrote on March 16 2007, 06:36 am

now thats what im ****'n talkin bout! great tab dude, 5 stars all the way

+4 reply
A_GOOD_TABBER 248 wrote on March 17 2007, 10:12 pm

a tad hard to follow,

guest
You may want to rate the tab now too:
select rating
Please do not post tabs as comments. Select "correction" instead!