Oops, an error
Loading. Please wait.

Metal Bass Tab

version 2
version 2

Whole song

Interactive

8,960 views 15 this week
2 commentsread comments
1 2 3 4 5
accurate
x 4
add to favorites
launch autoscroll
font size
0
reset
guitar tuner
Tab Pro tools
  • play this tab
  • loop segment
  • change instrument
  • show fretboard
  • metronome
Autoscroll
slow
fast
+/-
esc
set tempo
stop
Contributor
Difficulty
novice
I'm tabbing it for a five-string, cuz thats what I have, so no down-tuning for me:P

Tenacious D - The Metal
Azizzle

Comes in a little bit after the drums.
Verse (:09): x4
G:-------------------------------------------------|
D:-------------------------------------------------|
A:---------------------5h7-7-7-----------------7---|
E:--0--0--3--0-0--0--0---------0--0--3--0-0--0-----|
B:-------------------------------------------------|

G:----------------------------------------------------|
D:----------------------------------------------------|
A:----------------------5h7-7-7---------------3-2-0---|
E:--0--0--3--0-0--0--0-----------1--1--1-1----------3-|
B:----------------------------------------------------|

Pre-Chorus type thing (:44):

G:----------------------------------------|
D:----------------------------------------|
A:----------------------------------------|
E:--0--0--3--0-0---0--0--3-0--0hold note--|
B:----------------------------------------|

Chorus (:48):
G:-------------------------------------------------------------------------|
D:-------------------------------------------------------------------------|
A:--7--5--7--5--7-8-7--5--7--5--10-9-8--7--5--7--5--7-8-7--5--7--5--10-9-8-|
E:-------------------------------------------------------------------------|
B:-------------------------------------------------------------------------|

Interlude thing (1:05):
Not really bass behind it, but I'll put something there to emphasize it.
G:----------------------------------------------------------|
D:--5---4--2------5---4--2---2-0---0------------------------|
A:-------------------------------3------3--2--------3--2----|
E:-------------------------------------------0-----------0--|
B:----------------------------------------------------------|

Verse again at (1:22) until (2:05)

Breakdown:

G:---------------------------------------------------|
D:---------------------------------------------------|
A:---------3--2/6--5/9--8\----------3--2/6--5/9--8\--|
E:---------------------------------------------------|
B:--3----3------------------3----3-------------------|

G:------------------------------------------|
D:------------------------------------------|
A:----------3--2-----------3-3-2-0-2-0------| X2
E:--------------------0h1--------------1-0--|
B:-3--3---3------3--3-----------------------|

G:------------------------------------------------------|
D:------------------------------------------------------|
A:----------------------------------------3--2/6--5/9-8-|  X2
E:----------1--0----------0--1--------------------------|
B:-33333333------33333333-------33333333----------------|

Ending (2:31)
G:-------------------------------------------------|
D:-------------------------------------------------|
A:-------------------------------------------------|
E:-------------------------------------------------|
B:-3--3--3---3-3--3--3---3-3--3--3---3-3--3--3---3-|

Tab Legend:
h: hammer on
/: slide up
\: slide down
comments
print report bad tab
2 comments total.
0 reply
chris1110 wrote on December 9 2009, 01:27 pm

pathetic tabbing, if you think the song is that easy then you are sorely mistaken

0 reply
DomDaDude wrote on July 28 2010, 08:48 pm

These tabs are better then the first one this bass track is fairly easy and doesnt follow the guitar like everyone thinks. By looking at the guitar hero chart http://www.youtube.com/watch?v=x9D6H2-Odnk you can see that. You can't mess with guitar hero they got the bass track isolated.

I want to post or [tab]
guest
You may want to rate the tab now too:
select rating
Please do not post tabs as comments. Select "correction" instead!