Oops, an error
Loading. Please wait.

Metal Tab

version 3
version 3
38,254 views 15 this week
11 commentsread comments
1 2 3 4 5
x 18
add to favorites
launch autoscroll
font size
0
reset
how to read this tab
guitar tuner
×
Best way to learn
"Metal"
Autoscroll
slow
fast
+/-
esc
set tempo
stop
Difficulty
intermediate
I noticed that the tabs so far just gave the chords for the interlude,
the pattern is called "Travis Picking" and is quite is to grasp, just
change the chord and continue the patten.
(http://www.wikipedia.org/wiki/Travis_picking)
KG uses very many variations so just use this as a basis.
suggestions: manbearpig77@msn.com

      Emin.           Dmaj.           Cmaj.
e||---7---------------5--------5------3-------3---||  |-------------|
B||----------8-------------7--------------5-------||  |-------------|
G||-------9--------------7------7-------5-------5-||  |-------------|
D||-----9-------9-----7-----7---------5-----5-----||  |--4-2-0-2----|
A||---7-----7-------------------------------------||  |--5-3-2-3----|
E||-----------------------------------------------||  |-------------|
  No one can destroy the metal...            x2               x1

      Cmaj.               Bmin.              Emin.                 
e||-------------------------------------| |------------------||
B||o--8-----------8-------7--------7----| |--8--------8-----o||
G||----------9-----------------7--------| |-------9----------||  
D||-------10-------10--------9-------9--| |-----9------------||
A||o--10-------10---------9------9------| |--7------7----9--o||
E||-------------------------------------| |------------------||
  We are the vanquished foes of...

    Emin.
e|----------------<12>--|||
B|--0-------0-----------|||
G|-------------0--------|||
D|------2---------------|||
A|----2-----------------|||
E|--0-----0-------------|||
  for why we do not know...
Suggest correction
comments
print report bad tab
11 comments total. Showing first comments.
+2 reply
Musketeer(s) 30 Feb 10, 2007 11:23 AM

Sweet. Thats the only part I wanted to learn

+1 reply
black_roses_jmt 10 Jul 21, 2007 04:50 PM

nice, what does the very last note,, mean, harmonic? just wondering

+1 reply
MASTER JiMMY 570 Oct 15, 2007 11:11 PM

yes it is a harmonic, asu can also hear in the reocrding, i think thers one little lick he plays which u havent covered, it is in between 1:07 and 1:08 it sounds somehitng like
---------------
-----------5---
--------4------
----7p5--------
-/5------------
---------------

guest
You may want to rate the tab now too:
select rating
Wanna post a correction for this tab? Suggest correction