Oops, an error
Loading. Please wait.

Metal Tab

version 5
version 5
8,599 views 1 this week
5 commentsread comments
1 2 3 4 5
x 14
add to favorites
launch autoscroll
font size
0
reset
how to read this tab
guitar tuner
Autoscroll
slow
fast
+/-
esc
set tempo
stop
Help us to improve Ultimate-Guitar.com Take our survey!
×
Author
Difficulty
Tuning
intermediate
D A D G B E
------------------------------------------------------------------------
                          The Metal – Tenacious D
------------------------------------------------------------------------
Tabbed by: Dan4ftball14
Email: Dan4ftball13@yahoo.com

Tuning: DADGBE

Note: I know this isn’t the way the band play it or anything, but
the full point of me making this was so you don’t have to switch 
the tuning halfway true the song. 

Intro + Verse I

E|----------------------------------------------------------------------|
B|----------------------------------------------------------------------|
G|----------------------------------------------------------------------|
D|----------------------------------------------------------------------|
A|---------------3-2-0-2-0-2-3-2-0---------------3-2-0-2----------------|
D|-2---2-2-5-2-2-------------------2---2-2-5-2-2------------------------|
  

E|----------------------------------------------------------------------|
B|----------------------------------------------------------------------|
G|-----------------------------------------0----------------------------|
D|-------------------------------------------3-2-3-2-0-2-0-2-3-2-0------| X5
A|---------------3-2-0-2-0-2-3-2-0-------3------------------------------|
D|-2---2-2-5-2-2-------------------3---3--------------------------------|


Pre-Chorus

E|----------------------------------------------------------------------|
B|----------------------------------------------------------------------|
G|----------------------------------------------------------------------|
D|----------------------------------------------------------------------|
A|----------------------------------------------------------------------|
D|-2---2-2-5-2-2-2-----------------2---2-2-5-2-2-2----------------------|

Chorus

E|----------------------------------------------------------------------|
B|----------------------------------------------------------------------|
G|-4-----2-----4-----2-----4---5---4-----2-----4-----2-----7---6---5----|
D|-2-----0-----2-----0-----2---3---2-----0-----2-----0-----5---4---3----| X2
A|----------------------------------------------------------------------|
D|----------------------------------------------------------------------|

Bridge

E|--7-----------------5-----------5-------3-----------3-----------------|
B|--------------8-----------7-------------------------------------------|
G|--------9--------------7-----------7----------5-----------1--2--0--2--|
D|-----9-----------7--7--------7-------------5-----------5--5--3--2--3--|
A|--7--------7----------------------------5--------5--------------------|
D|----------------------------------------------------------------------|

E|----------------------------------------------------------------------|
B|--8--------------8------7-----------7-----0-----------0---------------|
G|----------9-------------------7--------------------------0------------|
D|------10------------10-----9--------------------2---------------------|
A|--10---------10---------9--------9-----9-----2------------------------|
D|------------------------------------------2--------2------------------|

Verse II

E|----------------------------------------------------------------------|
B|----------------------------------------------------------------------|
G|----------------------------------------------------------------------|
D|----------------------------------------------------------------------|
A|---------------3-2-0-2-0-2-3-2-0---------------3-2-0-2----------------|
D|-2---2-2-5-2-2-------------------2---2-2-5-2-2------------------------|
  

E|----------------------------------------------------------------------|
B|----------------------------------------------------------------------|
G|-----------------------------------------0----------------------------|
D|-------------------------------------------3-2-3-2-0-2-0-2-3-2-0------| X5
A|---------------3-2-0-2-0-2-3-2-0-------3------------------------------|
D|-2---2-2-5-2-2-------------------3---3--------------------------------|


Outro

E|----------------------------------------------------------------------|
B|----------------------------------------------------------------------|
G|----------------------------------------------------------------------|
D|--0—-0--------------------0--0----------------------------------------|
A|--0—-0-3~-2~/6~-5~/9~-8~--0--0-3~-2~/6~-5~/9~-8~----------------------|
D|--0—-0--------------------0--0----------------------------------------|


E|----------------------------------------------------------------------|
B|----------------------------------------------------------------------|
G|----------------------------------------------------------------------|
D|--0--0-----10--9----0--0----------------------------------------------| X2
A|--0--0-----10--9----0--0-------2h3p2p0--2p0---------------------------|
D|--0--0--0--10--9----0--0--2p0---------------3p2-----------------------|


E|----------------------------------------------------------------------|
B|----------------------------------------------------------------------|
G|----------------------------------------------------------------------|
D|----------------------------------------------------------------------|X2
A|----------------------------------------------3-2-6-5-9-8-------------|
D|--0-0-0-0-0-0-3-2-0-0-0-0-0-0-2-3-0-0-0-0-0-0-------------------------|


E|----------------------------------------------------------------------|
B|----------------------------------------------------------------------|
G|----------------------------------------------------------------------|
D|----------------------------------------------------------------------| X2
A|-------2h3p2p0--2p0--------------2h3p2p0--2p0-------------------------|
D|--0h2---------------3p2-0---0h2---------------3p2-0-------------------|



| / slide up
| \ slide down
| h hammer-on
| p pull-off
| ~ vibrato
| + harmonic
| x Mute note
================================================================
Suggest correction
comments
print report bad tab
5 comments total. Showing first comments.
+5 reply
doomed1 30 Feb 08, 2008 04:08 PM

you = phail

+4 reply
Mr Apparataus 10 Feb 09, 2008 01:13 AM

bad it is quite dissapointing at your incompetence to learn the song propbally

+2 reply
jd44 82 Feb 10, 2008 01:25 PM

terrible, take a lap

guest
You may want to rate the tab now too:
select rating
Wanna post a correction for this tab? Suggest correction