Oops, an error
Loading. Please wait.

Papagenu Hes My Sassafrass Tab

version 1
version 1

Solo

Whole song

Interactive

8,877 views 1 this week
3 commentsread comments
1 2 3 4 5
x 5
add to favorites
launch autoscroll
font size
0
reset
how to read this tab
guitar tuner
Autoscroll
slow
fast
+/-
esc
set tempo
stop
Help us to improve Ultimate-Guitar.com Take our survey!
×
Author
Difficulty
intermediate
I noticed that there was no solo on this site so i decided to post one


solo
e-----------------------------------------------------------------------|
B--------------------------------------------------15-15p12-------------|
G-14-12b--------------------------------------12-14--------14-12-14b-14-|
D--------12-12p10--10h12-12-12p10--12s14-12s14--------------------------|
A----------------12--------------12-------------------------------------|
E-----------------------------------------------------------------------|

e------------------------------------------------------------|
B----15b^^^^^^^^^^^^^^-12-13-13-13--10-12-12-12--12-12-12-10-|
G------------------------------------------------------------|
D------------------------------------------------------------|
A------------------------------------------------------------|
E------------------------------------------------------------|

 ^ = repeated bending and picking
Suggest correction
comments
print report bad tab
3 comments total.
0 reply
jugamasta420 338 Mar 15, 2007 05:30 PM

not bad dude keep'em comin 5 stars

0 reply
Wicia 10 Dec 19, 2007 08:36 AM

i think,that solo is like this:

solo

e-----|
B-----xxxx15-12-----|
G-14-12^-----12-----12-14
xxxx-----14-12--12--14-14
-14^-14|
D-----12-10-12-12-10----1
0-12-10-12/14----12/14-12/14-----14-----|
A-----12-----|
E-----|

e-----|
B----15^^^^^-12-13-13-13-
13--12-12--10-10----|
G-----12-|
D-----|
A-----|
E-----|

0 reply
Oldschoolguy 10 Mar 31, 2010 10:10 PM

Thanks man, cause the other idiot tabbed the recorder part rather than tabbing the solo 5 stars. Now, as for the tab above me, what the hell is that. That looks like another language.

guest
You may want to rate the tab now too:
select rating
Wanna post a correction for this tab? Suggest correction