Oops, an error
Loading. Please wait.

Pick Of Destiny Tab

version 1
version 1

Solo

Whole song

Interactive

6,783 views 1 this week
2 commentsread comments
1 2 3 4 5
1 last vote to show rating
add to favorites
launch autoscroll
font size
0
reset
how to read this tab
guitar tuner
Autoscroll
slow
fast
+/-
esc
set tempo
stop
Help us to improve Ultimate-Guitar.com Take our survey!
×
Author
Difficulty
intermediate
----------------------------------------------------------------------------
                             The Pick Of Destiny - Tenacious D
----------------------------------------------------------------------------

Tabbed by: Afro_George
Email: George_1990_@hotmail.com

Tuning: normal 

e|--------------------------|--------------0-------------------------------|
B|--------------------------|--------------0-------------------------------|
G|-------------------5B-----|------------------------5---------------------|
D|------5-------7-----------|--5------7-----------------------7------------|
A|--------------------------|----------------------------------------------|
E|--------------------------|----------------------------------------------|

e|----------------------------------------------|
B|----------------------------------------------|
G|------7B8-------5-------7B9B7-----5-----------|
D|-----------------------------------------7----|
A|----------------------------------------------|
E|----------------------------------------------|

e|------------0---0----0------------------------|
B|------------------------------------0---------|
G|------5-----7---7----7B9B7-----5--------------|
D|------------------------------------------7---|
A|----------------------------------------------|
E|----------------------------------------------|

e|----0--------0--------0---|----0-----0-----0-----0----0-----0--------0---|
B|----0--------0--------0---|----0-----0-----0-----0----0-----0--------0---|
G|----9/10-----10/12----12--|----14----12----14---------------9/10---------|
D|--------------------------|----------------------------------------------|
A|--------------------------|----------------------------------------------|
E|--------------------------|----------------------------------------------|

e|---0------0---0---0------0---0---0------0---0---0------0---0-------|
B|---0------0---0---0------0---0---0------0---0---0------0---0-------|
G|---10/12--12--12--12/14--14--14--14/16--16--16--16/17--17--17------|
D|-------------------------------------------------------------------|
A|-------------------------------------------------------------------|
E|-------------------------------------------------------------------|

e|---0------0---0---0------0---0---0---------------------------------------|
B|---0------0---0---0------0---0---0---------------------------------------|
G|---17/19--19--19--19/21--21--21--21--------------------------------------|
D|--------------------------------------------------7-------5--------------|
A|-------------------------------------------------------------------------|
E|-------------------------------------------------------------------------|


| /  slide up
| B  Bend up
============================================================================
Suggest correction
Give kudos to tab author, rate the tab!
1 2 3 4 5
comments
print report bad tab
2 comments total.
0 reply
johnsy2004 51 Dec 02, 2006 08:08 AM

how do u bend 9th fret up to 7th? i cant seem to do it!

couple of mistakes but looks ok!

0 reply
georgeow 742 Dec 03, 2006 03:39 PM

lol he means bend up from 7 to 9 then bend back down again

guest
You may want to rate the tab now too:
select rating
Wanna post a correction for this tab? Suggest correction