Oops, an error
Loading. Please wait.

Pick Of Destiny Tab

version 1
version 1

Whole song

Interactive

86,974 views 66 this week
16 commentsread comments
1 2 3 4 5
x 17
add to favorites
launch autoscroll
font size
0
reset
how to read this tab
guitar tuner
×
Best way to learn
"Pick Of Destiny"
Autoscroll
slow
fast
+/-
esc
set tempo
stop
(Guitar 1) Steel Acoustic-E A D G B e                                                          
(Guitar 2) Electric-Distortion-E A D G B e 

[Intro/Chorus 1] 
e|-0--0-0----0-0-0-0------------------------------------------------| 
B|-1--0-1----1-1-0-1------------------------------------------------|
G|-2--0-2----2-2-0-2------------------------------------------------|
D|-2--0-2--x-2-2-0-2-------------3-3-3-3-3-3-3-3-5-5-5-5-5-5-5-5----| 
A|-0--0-0--x-0-0-0-0-------------3-3-3-3-3-3-3-3-5-5-5-5-5-5-5-5----|
e|-------------------------------1-1-1-1-1-1-1-1-3-3-3-3-3-3-3-3----|

Cause its a pick!...                                                    (x2)

e|------------------------------------------------------------------|
B|------------------------------------------------------------------|
G|------------------------------------------------------------------|
D|------------------------------------------------------------------|  
A|-----------------------3-2----------/3-2-0-------------3-2-0------|
e|---------------5-0-3-5-----5-3-1vv---------3vv---3-5-3-------3----|

[Verse]                                     #1                #2
e|----------------------------------------|------|          |--------|
B|----------------------------------------|------|          |--------|
G|---2---2---2---2------------------------|------| (x3)     |--------|
D|---2---2---2---2-5-5-5-3---3---3-5---5--|5-5-5-|          |5-5-5-5-|
A|-0-0-0-0-0-0-0-0-5-5-5-3---3---3-5---5--|5-5-5-|          |5-5-5-5-|
e|-----------------3-3-3-1-1-1-1-1-3-3-3-3|3-3-3-|          |3-3-3-3-|
 Pm_   _   _   _           _   _     _
In Venice beach there was a man named Cage...

[Chorus 1]
e|-0--0-0----0-0-0-0------------------------------------------------| 
B|-1--0-1----1-1-0-1------------------------------------------------|
G|-2--0-2----2-2-0-2------------------------------------------------|
D|-2--0-2--x-2-2-0-2-------------3-3-3-3-3-3-3-3-5-5-5-5-5-5-5-5----| 
A|-0--0-0--x-0-0-0-0-------------3-3-3-3-3-3-3-3-5-5-5-5-5-5-5-5----|
e|-------------------------------1-1-1-1-1-1-1-1-3-3-3-3-3-3-3-3----|

[Chorus 2]
e|-------------------------------------------------------| 
B|-------------------------------------------------------|
G|-------------------------------------------------------|
D|-3-3-3-3-3-3-3-3-3-5-5-5-5-5-5-5-----------------------| (x3)
A|-3-3-3-3-3-3-3-3-5-5-5-5-5-5-5-5-----------------------|
e|-1-1-1-1-1-1-1-1-3-3-3-3-3-3-3-3-----------------------|
|Pm_____   ___   _   ___   ___   _ 

Cause he who is sleazy-is easy to pleasey...
e|----------------0-|
B|----------------0-|
G|----------------1-|
D|-7-5-3-5--2-2-2-2-|
A|-7-5-3-5--2-2-2-2-|
E|-5-3-1-3--0-0-0-0-|

[Bridge]
e|--1-----1---------1-----1---------0-----0---------0-----0-------|
B|----3-----3---3-----3-----3---3-----1-----1---1-----1-----1---1-|
G|------2-----2---------2-----2---------2-----2---------2-----2---|
D|-0--------------0-----------------------------------------------|
A|--------------------------------0---------------0---------------|
e|----------------------------------------------------------------|

The wizard and the demon had a battle royal...
e|-0-0-----0---------3-----3--------------------------------------|
B|-1---1-----1---1-----3-----3---3--------------------------------|
G|-0-----0-----0---------0-----0----------------------------------|
D|-2---------------0----------------------------------------------|
A|-3---------------2----------------------------------------------|
E|-----------------3----------------------------------------------|

e|---------------------------------| 
B|---------------------------------|
G|---------------------------------|      (Begin to lift your 
D|-3-3-3-3-3-3-3-3-5-5-5-5-5-5-5-5-|   palm slowly off the strings)
A|-3-3-3-3-3-3-3-3-5-5-5-5-5-5-5-5-|
e|-1-1-1-1-1-1-1-1-3-3-3-3-3-3-3-3-|
 Pm______*________________________

[Chorus 1]
e|-0--0-0----0-0-0-0------------------------------------------------| 
B|-1--0-1----1-1-0-1------------------------------------------------|
G|-2--0-2----2-2-0-2------------------------------------------------|
D|-2--0-2--x-2-2-0-2-------------3-3-3-3-3-3-3-3-5-5-5-5-5-5-5-5----| 
A|-0--0-0--x-0-0-0-0-------------3-3-3-3-3-3-3-3-5-5-5-5-5-5-5-5----|
e|-------------------------------1-1-1-1-1-1-1-1-3-3-3-3-3-3-3-3----|

e|-------------------------------------------------------| 
B|-------------------------------------------------------|
G|-------------------------------------------------------|
D|-3-3-3-3-3-3-3-3-3-5-5-5-5-5-5-5-----------------------| (x3)
A|-3-3-3-3-3-3-3-3-5-5-5-5-5-5-5-5-----------------------|
e|-1-1-1-1-1-1-1-1-3-3-3-3-3-3-3-3-----------------------|
|Pm_____   ___   _   ___   ___   _ 
He who's a geezer-must live in my freezer...

[Solo]
             I know this is wrong but this is the best I can do.
e|-------------------------------------------------------------------|
B|-------------------------------------------------------------------|
G|---------------------------------7^-----8^---------7-7^-8^--7------|
D|-10^-----7-10^-7------7^--10-9-7----9-7-10^---10-7---9--10----10-7-|
A|------10-----------10----------------------------------------------|
e|-------------------------------------------------------------------|

e|------------------------------------------------10-12-13-15-17-----| 
B|-0--0---------------10----10--0-0-0--0--0--0--0--0--0--0--0--0-----|
G|-9/10-10/12-12---12----12-----------10-12-14-16--------------------|
D|-------------------------------------------------------------------|
A|-------------------------------------------------------------------|
e|-------------------------------------------------------------------|

(Backup Chords)
e|-------------------------------------------------------------------| 
B|-------------------------------------------------------------------|
G|-2-2-2-2-2-2-2-2-2-2-2-2-2-2-2-2-----------------------------------|
D|-2-2-2-2-2-2-2-2-2-2-2-2-2-2-2-2-3-3-3-3-3-3-3-3-5-5-5-5-5-5-5-5---| (x2)
A|-0-0-0-0-0-0-0-0-0-0-0-0-0-0-0-0-3-3-3-3-3-3-3-3-5-5-5-5-5-5-5-5---|
e|---------------------------------1-1-1-1-1-1-1-1-3-3-3-3-3-3-3-3---|

[Outro]
e|--------------------8-8-10-11^--|--------------------------------|
B|-----------------10-------------|--------------------------------|
G|--------------------------------|-----9h10p9---------------------|
D|------12^-12^12^----------------|-10^--------12-10-9-------------|
A|--------------------------------|--------------------12-10-8-7-8-|
e|--------------------------------|--------------------------------|
'Cause if you're a diva-then go to Geneva...

 (To be played with Outro Soloing)
e|-------------------------------------------------------| 
B|-------------------------------------------------------|
G|-------------------------------------------------------|
D|-3-3-3-3-3-3-3-3-3-5-5-5-5-5-5-5-----------------------| (x3)
A|-3-3-3-3-3-3-3-3-5-5-5-5-5-5-5-5-----------------------|
e|-1-1-1-1-1-1-1-1-3-3-3-3-3-3-3-3-----------------------|
|  Pm___   ___   _   ___   ___   _ 

e|---------------------|
B|---------------------|
G|-8^------------------|
D|----10-7-10-7----7vv-|
A|--------------10-----|
e|---------------------|

It's called the pick of destiny!

e|--------------------|
B|--------------------|
G|--------------------|
D|-3-2--5-2--7-7-7-7--|
A|-3-2--5-2--7-7-7-7--|
e|-1-0--3-0--5-5-5-5--|


************************************

| x  Dead note
| /  Slide up
| h  Hammer-on
| p  Pull-off

************************************
Suggest correction
comments
print report bad tab
16 comments total. Showing first comments.
+1 reply
1232 52 Nov 14, 2006 01:24 AM

sorry i think this is really wrong it doesnt fit with the song

+1 reply
1232 52 Nov 14, 2006 01:28 AM

nice try though

+1 reply
Metal_Militia15 143 Nov 14, 2006 10:08 AM

does anybody agree with this guy?

guest
You may want to rate the tab now too:
select rating
Wanna post a correction for this tab? Suggest correction