Oops, an error
Loading. Please wait.

Pick Of Destiny Chords

version 4
version 4

Whole song

Interactive

4,535 views 1 this week
no commentswrite comment
1 2 3 4 5
2 more votes to show rating
add to favorites
launch autoscroll
font size
0
reset
transpose
0
reset
display chords
guitar tuner
Autoscroll
slow
fast
+/-
esc
set tempo
stop
Help us to improve Ultimate-Guitar.com Take our survey!
×
Author
Difficulty
novice
This song is in chords put i've done the solo bit aswell! hav fun! okies i dont think 
song is too hard but for the solo your fingers might not be strong enough (as its played 
acoustics) so..play it on electric 1st then go to acoustic
LONG LIVE THE D!!!

SOUND-Gain~6
      Overdrive~ON
      Treble~7
      Middle~6
      Bass~7
      Reverb~3


CHORUS-
             Am
Cos it's the Pick!
Of Destiny child,
    F                                        G
you know It will be rockin' cos it's fucking insane!
         Am
It's the Pick!
Of Destiny child,
                                           G
more precious than a diamond on a platinum chain!

VERSE 1-
Am                                  G
In Venice Beach, there was a man named Kage
F                                 G
When he was buskin he was all the rage.
Am                                  G
He met Jables and he taught him well,
F                                   G
All the techniques that were developed in hell.

Am                                 G
Cock pushups and the power slide,
F                                     G
Dick simulation now theres nowhere to hide.
Am                               G
They formed a band they named Tenacious D,
F                                    G
And then they got the Pick of Destiny.

CHORUS 2-
Cause it's the Pick!
Of Destiny child,
you know I will be rockin' cause it's fucking insane!

Cause it's the Pick!
Of Destiny child,
our tasty grooves are better than a chicken chow mein!

VERSE 2-
    F                      G
Cos he who is sleazy, is easy to pleasy.
    F                        G
And she who is juicy, must be loosy-goosey.
    F                        G
And he who is groovy, will be in my movie,
    Am G F G E
so come on!


MIDDLE 8-
   Dm                               Dm/E
The wizard and the demon had a battle royale,
   Am                                         E
the demon almost killed him with an evil kapow,
    C                                            G
but then he broke his tooth and thus the demon said "OW"

CHORUS 3-
Cos it's the Pick!
Of Destiny child,
you know I will be rockin' cause it's fucking insane!

Cos it's the Pick!
Of Destiny child,
you know our movie's better than Citizen Kane!

BRIDGE 2-
    F
Cos he who's a geezer,
     G
must live in my freezer.
    F
And she who is starkey,
   G
is full of mularkey.
    F
And he who is groovy,
     G
must be in my movie,
so come on!

SOLO- Am                 G     F          G    x2
e|--------------------------|--------------0-------------------------------|
B|--------------------------|--------------0-------------------------------|
G|-------------------5b-----|------------------------5---------------------|
D|------5-------7-----------|--5------7-----------------------7------------|
A|--------------------------|----------------------------------------------|
E|--------------------------|----------------------------------------------|

e|----------------------------------------------|
B|----------------------------------------------|
G|------7b8-------5-------7b9b7-----5-----------|
D|-----------------------------------------7----|
A|----------------------------------------------|
E|----------------------------------------------|

e|------------0---0----0------------------------|
B|------------------------------------0---------|
G|------5-----7---7----7b9b7-----5--------------|
D|------------------------------------------7---|
A|----------------------------------------------|
E|----------------------------------------------|

e|----0--------0--------0---|----0-----0-----0-----0----0-----0--------0---|
B|----0--------0--------0---|----0-----0-----0-----0----0-----0--------0---|
G|----9/10-----10/12----12--|----14----12----14---------------9/10---------|
D|--------------------------|----------------------------------------------|
A|--------------------------|----------------------------------------------|
E|--------------------------|----------------------------------------------|

e|---0------0---0---0------0---0---0------0---0---0------0---0-------|
B|---0------0---0---0------0---0---0------0---0---0------0---0-------|
G|---10/12--12--12--12/14--14--14--14/16--16--16--16/17--17--17------|
D|-------------------------------------------------------------------|
A|-------------------------------------------------------------------|
E|-------------------------------------------------------------------|

e|---0------0---0---0------0---0---0---------------------------------------|
B|---0------0---0---0------0---0---0---------------------------------------|
G|---17/19--19--19--19/21--21--21--21--------------------------------------|
D|--------------------------------------------------7-------5--------------|
A|-------------------------------------------------------------------------|
E|-------------------------------------------------------------------------|

BRIDGE 2-
    F
Oh! Cos if you're a diva,
     G
then go to Geneva.
    F
And if you're a crony,
     G
then suck on my bony.
     F
And if you are groovy,
     G
then get in my movie!
            F   C G  E   Am
It's called the Pick of Destiny!
   F   C G  E  Am
The Pick of Destiny
Suggest correction
Give kudos to tab author, rate the tab!
1 2 3 4 5
comments
print report bad tab
guest
You may want to rate the tab now too:
select rating
Wanna post a correction for this tab? Suggest correction