Oops, an error
Loading. Please wait.

Rize Of The Fenix chords

version 2
version 2

Whole song

Interactive

3,583 views 21 this week
no commentswrite comment
1 2 3 4 5
x 6
add to favorites
×
Save as Personal and add changes to this tab that will be seen only by you. Learn more ›
×
You can save this tab as Personal to edit and correct it or add notes. All changes will be seen only by you. Learn more »
launch autoscroll
font size
0
reset
transpose
0
reset
simplify chords
display chords
guitar tuner
backing track
0:00
0:00
edit
Autoscroll
slow
fast
+/-
esc
set tempo
stop
Author
Strumming
There is no strumming pattern for this song yet. and get +5 IQ
Tuning: Standard

[Intro]
  Em
e|--------------------------------|--------------------------------|
B|----------------------------0---|----------------------------0---|
G|----------------------------0---|----------------------------0---|
D|---------------------------(0)--|---------------------------(0)--|
A|2-------2-------2-------2-------|2-------2-------2-------2-------|
E|0---0-0-0---0-0-0---0-0-0-------|0---0-0-0---0-0-0---0-0-0-------|
  P.M.----------------------|

[Verse 1]
         Em 
When The Pick of Destiny was released it was a bomb
And all the critics said that the D was done
The sun had set and the chapter had closed
But one thing no one thought about was the D would rise again
              A
Just like the phoenix
              Bb   Em 
We'll fuckin' rise again
                  A
That's right, the phoenix
        Bb  Em
We'll rise again.

[Verse 2] 
(like first Verse)
'Cause the fiery heart of a champion cannot be quelched
By a failure or an embarrassment, no way, no
And the critics all agreed it was a stinky pile of chee
But that does not mean that our hearts are not strong
Just like the phoenix
We'll fuckin' rise again, y'all
That's right, the phoenix
We'll rise again

[Instrumental]
  Em
e|--------------------------------|--------------------------|
B|----------------------------0---|--------------------------|
G|----------------------------0---|--------------------------|
D|---------------------------(0)--|--------------------------|
A|2-------2-------2-------2-------|2-------5--4--3-2---------|
E|0---0-0-0---0-0-0---0-0-0-------|0---0-0-3--2--1-0---------|
  P.M.----------------------|

   A5       B5/A     C5/A     D5/A   A5
e|(5)-----------------------------------|
B|(5)--------------------------------10-| 
G|-2--------4--------5--------7-------9-|
D|-2--------4--------5--------7-------7-|
A|-0-00000000-00000000-00000000-0000000-|
E|--------------------------------------|

A5                  B5/A
Sun shining, it's a hell of a day
C5/A                    D5/A            A5
Bright is back and it's headed your way
A5                  B5/A       
D's here, now we're puttin' on a show
C5/A                       D5/A        
We'll stink it up, then we will need a window

[Instrumental]
   A        C   G       D   A 
e|-0----------------3---2-----| 
B|-2----------------3---3-----| 
G|-2--------0-------0---2-----|
D|-2--------2---0-------0---2-|
A|-0--------3---2-----------0-|
E|--------------3-------------|

A5                      B5/A
Out rockin', yeah we're rockin' again
C5/A              D5/A            A5
Black Mamba is my personal friend
Phil Jackson is the master of zen
We'll pick you up, keep you over the weekend

G G   D D  

A        G           D       
It's the rise of the phoenix
A        G       D
It's the call of attack
A               G           D
And you'll know when you've seen us
    Bb      F    C
The fuckin' D is back!

A5                 B5/A
Lovemakin' all the way to the top
C5/A                   D5/A
Boots smokin', but I'm not gonna stop
Bossa Nova is a beautiful dance
Hot-blooded, that's lots of romance

G G   D D  

A        G           D       
It's the rise of the phoenix
A        G       D
It's the call of attack
A               G           D
And you'll know when you've seen us
    Bb      F    C
The fuckin' D is back!

[Solo]
   A5           F5/A            G5/A             A5              (3x)
e|-----------------------------------------------------------------|
B|-----------------------------------------------------------------|
G|-2------------10--------------12---------------2-----------------|
D|-2------------10--------------12---------------2-----------------|
A|-0---0-0-0-0-0-0---0-0-0-0-0-0-0---0-0-0-0-0-0-0---0-0-0-0-0-0-0-|
E|-----------------------------------------------------------------|

   A5           F5/A            G5/A             Bb5              
e|-----------------------------------------------------------------|
B|-----------------------------------------------------------------|
G|-2------------10--------------12---------------3---3-3-3-3-3-3-3-|
D|-2------------10--------------12---------------3---3-3-3-3-3-3-3-|
A|-0---0-0-0-0-0-0---0-0-0-0-0-0-0---0-0-0-0-0-0-1---1-1-1-1-1-1-1-|
E|-----------------------------------------------------------------|

A                Em
But what if it's true?
     G                                A
If Tenacious D has died, what will we do?
And what will we do
About all the fans who have the D tattoo?
They'll have them removed
They'll have to laser off the D tattoos
Tattoos
They'll have to laser off the D tattoo

A5
Wait a minute Cage
G5                               
What's that you say?           
D/F#
You know it's not too late
A
Yes it is too late
We only need one hit
Just imagine it
We could be the shit
Too legit to quit
    A   
One hit
    G
One hit
    D/F#
One hit
           A
Yeah we're hoping this is it
One hit
Top 10 hit
Top 40 hit
Top 1000 hit
Aw, we don't care, as long as we get there
We'll start anew
And you can get a new Tenacious D tattoo
                                 F G A
You can get a new Tenacious D tattoo

            
            
Suggest correction
Creating personal tab
Creating personal tab
You can edit any tab online and save it as your Personal.

You can edit, replace or remove any tab part or add personal notes – all changes will be seen only by you.

Personal tabs can be accessed anytime from any device, even offline.
Learn more »
comments
print report bad tab
guest
You may want to rate the tab now too:
select rating
Wanna post a correction for this tab? Suggest correction