Oops, an error
Loading. Please wait.

Rock Your Socks tab

10,924 views 6 this week
3 commentsread comments
1 2 3 4 5
x 3
add to favorites
×
Save as Personal and add changes to this tab that will be seen only by you. Learn more ›
×
You can save this tab as Personal to edit and correct it or add notes. All changes will be seen only by you. Learn more »
launch autoscroll
font size
0
reset
how to read this tab
guitar tuner
backing track
0:00
0:00
edit
Autoscroll
slow
fast
+/-
esc
set tempo
stop
Author
Difficulty
Song - Rock Your Socks
Performed By - Tenacious D
Albulm - Tenacious D
Written by - Jack Black and Kyle Gass

                Tabbed by Chris Tremain


-Intro/Verse-

e|----------------------------------|
B|----------------------------------|
G|----------------------------------|
D|----------------------------------|
A|----------------------------------|
E|-0-0-0-0-3-3-3-3-6-6-6-6-5-5-3-3--|

or

  |<<<<<<<<<>>>>>>>>>>|
e|----------------------------------|
B|----------------------------------|
G|----------------------------------|
D|----------------------------------|
A|-2-2-2-2-5-5-5-5-8-8-8-8-7-7-5-5--|
E|-0-0-0-0-3-3-3-3-6-6-6-6-5-5-3-3--|


-Kyles acoustic solo-
(Johann Sebastian Bach's Bourrée in E minor from Suite in E minor)

e|--0-2-3-2-0---0-2-------0-----------------------------|
B|------------4-----0-2-4---4-2-0-----------------------|
G|---------------------------------2-0---0-2-4-0--------|
D|-------------------------------------4---------4-2----|
A|------------------------------------------------------|
E|------------------------------------------------------|

or

e|------------------------------------------------------|
B|-5-7-8-7-5---5-7-------5------------------------------|
G|-----------8-----4-6-8---8-6-4------------------------|
D|-------------------------------7-5---5-7-9-5----------|
A|-----------------------------------9---------9-7------|
E|------------------------------------------------------|

(i know thats not the correct version, but
its easier and sounds almost the same)

-Chorusy bit-
e|--------------------------|----------------------------|
B|--------------------------|----------------------------|
G|-9------------------------|----------------------------|
D|-9--keep-playing-this-----|------------------999799999-|
A|-7---until-it-breaks-into-|-777777/999999999-777777777-|
E|--------------------------|-555555/777777777-----------|


Intro
Verse
Kyles Acoustic Solo
Chorusy Bit
Verse
Chorusy Bit


-Lyrics-

One, two, three, four, five, SIX SIX SIX!

It doesn't matter if it is good,
It only matters if it rocks.
The main thing that we do is to rock your socks off.
There's no such thing as a rock prodigy,
Cause rock 'n roll is bogus, right KG? ('Right!')
Only thing that really matters is a classical sauce.
And that's why me and KG are classically trained
To rock your fuckin' socks off!
Give 'em a taste, KG.
('Okay.')

That is Bach, and it rocks.
It's a rock block of Bach,
That he learned in the school,
Called the School of Hard Knocks!

Give it up for KG, give it up for me,
Give it up for KG, give it up for me,
Give it up for rock,
Give it up for blues,
Give it up for everything that is not to lose.
Now, rock your socks off, woman,
We'll rock your shit up, y'all.
Give it up, children, now to freak your shit out!
All right!

Now I know what a lot of you are sayin',
'I just figured out what I'm gonna do with the rest of my days.
I'm gonna get me an oversized guitar,
Gain forty pounds, and be the next D.'
Well, I got sour news for you, jack. It ain't that easy.
For instance, are you willing to make the commitment to wakin' up
At the crack a' noon, for deep-knee rock squats?
Seven or eight at a time? In a row!
How 'bout, are you willing to make the commitment
To rock-hard tasty abs, washer-board style!
Glistening in the sun.
How 'bout, are you willin' to make the commitment,
Of wakin' up, goin',
'Okay, it's gig time, what t-shirt am I gonna wear?
I can't decide, can't decide. Brain aneurysm!'
We've been through so much bullshit just to be here tonight
To rock your fuckin' socks off.
And all we ask in return is some precious little...
All we're askin' you to do
Is drop trou
And squeeze out
A Cleveland Steamer on my chest. ('Ooh.')

Two, three, four!
Give it up for KG, give it up for me,
Give it up for KG, give it up for me,
Give it up for rock, give it up for blues,
Give it up for everything that is not to lose.
Now, rock your socks off, woman,
We'll rock your shit up, y'all.
Give it up, children, won't you freak your shit out!
All right!
Suggest correction
Creating personal tab
Creating personal tab
You can edit any tab online and save it as your Personal.

You can edit, replace or remove any tab part or add personal notes – all changes will be seen only by you.

Personal tabs can be accessed anytime from any device, even offline.
Learn more »
Give kudos to tab author, rate the tab!
1 2 3 4 5
comments
print report bad tab
3 comments total.
0 reply
sqwags 24 Jul 21, 2013 07:41 PM

Nice tab sounds correct

0 reply
sqwags 24 Jul 21, 2013 07:42 PM

Sqwags man Sqwags

0 reply
CycE11 10 Oct 16, 2015 01:33 PM

Classical part should be:

e|--0-2-3-2-0---0-2-------0-----------------------------|
B|------------4-----0-2-4---3-1-0-----------------------|
G|---------------------------------2-0---0-2-4-0--------|
D|-------------------------------------4---------4-2----|
A|------------------------------------------------------|
E|------------------------------------------------------|

guest
You may want to rate the tab now too:
select rating
Wanna post a correction for this tab? Suggest correction