Oops, an error
Loading. Please wait.

They Fucked Our Asses tab

version 1
version 1

Whole song

Interactive

12,097 views 1 this week
6 commentsread comments
1 2 3 4 5
x 14
add to favorites
×
Save as Personal and add changes to this tab that will be seen only by you. Learn more ›
×
You can save this tab as Personal to edit and correct it or add notes. All changes will be seen only by you. Learn more »
launch autoscroll
font size
0
reset
how to read this tab
guitar tuner
edit
Autoscroll
slow
fast
+/-
esc
set tempo
stop
Author
Difficulty
They Fucked Our Asses by Tenacious D off of "Rize Of The Fenix"

(Acoustic)

                                                             A min.
e|---------0------------------0------------------0-----------0---------------|
B|---1-0-1---1-0-1------1-0-1---1-0-1------1-0-1---1-0-1-----1---------------|
G|-2------------------2------------------2-------------------2---------------|
D|-----------------------------------------------------------2---------------|
A|-----------------------------------------------------------0---------------|
E|---------------------------------------------------------------------------|

   A min.          F 
e|-0--0-0--0-0-0---1--1-1--1-1-1-------------------|
B|-1--1-1--1-1-1---1--1-1--1-1-1-------------------|
G|-2--2-2--2-2-2---2--2-2--2-2-2-------------------|
D|-2--2-2--2-2-2---3--3-3--3-3-3-------------------|
A|-0--0-0--0-0-0-----------------------------------|
E|-------------------------------------------------| x 2
      They fucked our asses..

   A min.           C                  F                 E
e|-0--0-0--0-0-0----0--0-0--0-0-0------1--1-1--1-1-1-----0--0-0--0-0-0-------|
B|-1--1-1--1-1-1----1--1-1--1-1-1------1--1-1--1-1-1-----0--0-0--0-0-0-------|
G|-2--2-2--2-2-2----0--0-0--0-0-0------2--2-2--2-2-2-----1--1-1--1-1-1-------|
D|-2--2-2--2-2-2----2--2-2--2-2-2------3--3-3--3-3-3-----2--2-2--2-2-2-------|
A|-0--0-0--0-0-0----3--3-3--3-3-3------------------------2--2-2--2-2-2-------|
E|-------------------------------------------------------0--0-0--0-0-0-------|
       But we kept our Indie credit.. For the whole nine yards..

   A min.          F
e|-0--0-0--0-0-0---1--1-1--1-1-1-------------------|
B|-1--1-1--1-1-1---1--1-1--1-1-1-------------------|
G|-2--2-2--2-2-2---2--2-2--2-2-2-------------------|
D|-2--2-2--2-2-2---3--3-3--3-3-3-------------------|
A|-0--0-0--0-0-0-----------------------------------|
E|-------------------------------------------------| x 2
      They blocked our album...

   A min.           C                  F                 E
e|-0--0-0--0-0-0----0--0-0--0-0-0------1--1-1--1-1-1-----0--0-0--0-0-0-------|
B|-1--1-1--1-1-1----1--1-1--1-1-1------1--1-1--1-1-1-----0--0-0--0-0-0-------|
G|-2--2-2--2-2-2----0--0-0--0-0-0------2--2-2--2-2-2-----1--1-1--1-1-1-------|
D|-2--2-2--2-2-2----2--2-2--2-2-2------3--3-3--3-3-3-----2--2-2--2-2-2-------|
A|-0--0-0--0-0-0----3--3-3--3-3-3------------------------2--2-2--2-2-2-------|
E|-------------------------------------------------------0--0-0--0-0-0-------|
 But we marched through hill and dale, through the ice and snow

(Electric)

e|---------------------------------------------------------------|
B|---------------------------------------------------------------|
G|-------------4-5---------------4-5---------------4-5-----------|
D|-7-7-7-7-----------5-5-5-5-----------3-3-3-3-------------2---2-|
A|-7-7-7-7-----------5-5-5-5-----------3-3-3-3-------------2---2-|
E|-5-5-5-5-----------3-3-3-3-----------1-1-1-1-------------0---0-| x 2
 AHHHHHHHHHHHHHHHHHHHHHHHHHHHHHHHHHHHHHHHHH!!!!

                     hold
e|-5--3------------------------------|
B|-------5--3------------------------|
G|-------------5--4--5---------------|
D|-----------------------------------|
A|-----------------------------------|
E|-----------------------------------|
       0h, 0h, 0h, 0h, 0hhhhhhhh
Suggest correction
Creating personal tab
Creating personal tab
You can edit any tab online and save it as your Personal.

You can edit, replace or remove any tab part or add personal notes – all changes will be seen only by you.

Personal tabs can be accessed anytime from any device, even offline.
Learn more »
comments
print report bad tab
6 comments total. Showing first comments.
0 reply
Thunderflare 165 May 03, 2012 10:00 AM

So this is why my tab was rejected. It wasn't up yet when I submitted mine, but apparently you were just a bit earlier =)

0 reply
TheIntruder 158 May 03, 2012 02:22 PM

Sorry bro!

-2 reply
Thunderflare 165 May 07, 2012 11:28 AM

Don't worry about it, it got in in as a chords version with only a few little adjustments.

I think the electric part sounds more like:

|---------------------------------------------------------------|
|---------------------------------------------------------------|
|-----------4---5-----------4---5-----------4---5-------1-----0-|
|-----2----(5)-(7)---------(5)-(7)---------(5)-(7)2---2---------|
|-00000---------------5---------------3-----------2---2---------|
|-----------------33333-----------11111-----------0---0---------|
[\tab]

with the harmonies of the second playthrough between brackets.

guest
You may want to rate the tab now too:
select rating
Wanna post a correction for this tab? Suggest correction