Oops, an error
Loading. Please wait.

Tribute bass

version 1
version 1

Whole song

18,510 views 6 this week
6 commentsread comments
1 2 3 4 5
x 15
add to favorites
×
Save as Personal and add changes to this tab that will be seen only by you. Learn more ›
×
You can save this tab as Personal to edit and correct it or add notes. All changes will be seen only by you. Learn more »
launch autoscroll
font size
0
reset
guitar tuner
backing track
0:00
0:00
edit
Autoscroll
slow
fast
+/-
esc
set tempo
stop
Tenacious D - Tribute
Submitted By: rap_boy
EMail: jason_wassup@hotmail.com


Riff 1. ("look into my eyes")
		|---------------------------|
		|---------------------------|
		|-5-5--8-8------------------|
		|-----------8-8--3-3--1-1-1-|

Verse Riff.
		|-----------------------|
		|-----------------------|	
		|-0--0-0-(pause)-0--0-0-|
		|-----------------------|

Riff 2.
		|---------------------|
		|---------------------|	
		|---------------------|
		|-5-5-3-3-1-1-1-1-1-1-|

            
            
Suggest correction
Creating personal tab
Creating personal tab
You can edit any tab online and save it as your Personal.

You can edit, replace or remove any tab part or add personal notes – all changes will be seen only by you.

Personal tabs can be accessed anytime from any device, even offline.
Learn more »
comments
print report bad tab
6 comments total. Showing first comments.
-1 reply
4-string-4-eva 240 Jul 12, 2004 08:00 PM

ok im assuming its in standard tuning here but why dont you write it like this:

riff 1

|-0-0--3-3-----------------
|-----------3-3------------
|----------------3-3--1-1-1
|--------------------------

riff 2

|---------------------
|---------------------
|-0-0-----------------
|-----3-3-1-1-1-1-1-1-

the way youve written it it looks like youve done it the most complicated way you can

-1 reply
squishmonster 10 Aug 10, 2006 12:49 AM

thats a ****ing gd idea.

-1 reply
Jasper7979 51 Sep 20, 2007 09:18 AM

Good Tab .. But VERY Good with 4-string-4-eva

guest
Wanna post a correction for this tab? Suggest correction