Oops, an error
Loading. Please wait.

Tribute Tab

version 1
version 1

Whole song

805,815 views 1,314 this week
52 commentsread comments
1 2 3 4 5
excellent!
x 107
add to favorites
launch autoscroll
font size
0
reset
how to read this tab
guitar tuner
Autoscroll
slow
fast
+/-
esc
set tempo
stop
Help us to improve Ultimate-Guitar.com Take our survey!
×
Author
Difficulty
intermediate
                                     TRIBUTE
                           As recorded by Tenacious D
                        (From the 2001 Album TENACIOUS D)

Words and Music by Jack Black, Kyle Gass
Transcribed by Dave, and Joel

Gtr I (E A D G B E) - 'Untitled'
Gtr II (E A D G B E) - 'Untitled'
Gtr III (E A D G B E) - 'Untitled'


[Intro]

   Moderate Rock Q=96
                     Am
  4/4
   Gtr I
e|---------------||------0-0-0-0-0-0-0---0---|-----0-0-0-0-0-0----------||
B|---------------||o-----1-1-1-1-1-1-1h3-0h1-|-----1-1-1-1-1-1---------o||
G|-----------0h2-||------2-2-2-2-2-2-2---2---|-----2-2-2-2-2-2-----0h2--||
D|-------0h2-----||----2-2-2-2-2-2-2-2---2---|---2-2-2-2-2-2-2-0h2------||
A|---------------||o-0---0-0-0-0-0-0-0---0---|-0---0-0-0-0-0-0---------o||
E|---------------||--------------------------|--------------------------||


    Verse
e||------0-0-0-0-0-0-0---0---|
B||o-----1-1-1-1-1-1-1h3-0h1-|
G||------2-2-2-2-2-2-2---2---|
D||----2-2-2-2-2-2-2-2---2---|
A||o-0---0-0-0-0-0-0-0---0---|
E||--------------------------|


                            3x
e|-----0-0-0-0-0-0----------||-----0-0-0-0-0-0-0---0---|
B|-----1-1-1-1-1-1---------o||-----1-1-1-1-1-1-1h3-0h1-|
G|-----2-2-2-2-2-2-----0h2--||-----2-2-2-2-2-2-2---2---|
D|---2-2-2-2-2-2-2-0h2------||---2-2-2-2-2-2-2-2---2---|
A|-0---0-0-0-0-0-0---------o||-0---0-0-0-0-0-0-0---0---|
E|--------------------------||-------------------------|


e|--------0--0-0-0-0-0---------|
B|--------1--1-1-1-1-1---------|
G|--------2--2-2-2-2-2-----0h2-|
D|-----2--2--2-2-2-2-2-0h2-----|
A|-0------0--0-0-0-0-0---------|
E|-----------------------------|
|
 | Gtr II
 | <
e|-----------------------------|
B|-5-----(5)-------------------|
G|-7b9---(7)-------------------|
D|-----------------------------|
A|-----------------------------|
E|-----------------------------|


e|---------0-0-0-0-0-0-0---0---|-----0-0-0-0-0-0----------|
B|---------1-1-1-1-1-1-1h3-0h1-|-----1-1-1-1-1-1----------|
G|---------2-2-2-2-2-2-2---2---|-----2-2-2-2-2-2-----0h2--|
D|------2--2-2-2-2-2-2-2---2---|---2-2-2-2-2-2-2-0h2------|
A|-0-------0-0-0-0-0-0-0---0---|-0---0-0-0-0-0-0----------|
E|-----------------------------|--------------------------|
|
 | <
e|-----------------------------|-----------0--------------|
B|-----------------------------|-----------0-0------------|
G|-----------------------------|-----------5--------------|
D|-6b7-(6)---------------------|--------------------------|
A|-----------------------------|--------------------------|
E|-----------------------------|--------------------------|


e|-------0-0-0-0-0-0-0---0---|-----0-0-0-0-0-0-0---0---|
B|-------1-1-1-1-1-1-1h3-0h1-|-----1-1-1-1-1-1-1h3-0h1-|
G|-------2-2-2-2-2-2-2---2---|-----2-2-2-2-2-2-2---2---|
D|-----2-2-2-2-2-2-2-2---2---|---2-2-2-2-2-2-2-2---2---|
A|--0----0-0-0-0-0-0-0---0---|-0---0-0-0-0-0-0-0---0---|
E|---------------------------|-------------------------|
|
e|---------------------------|-------------------------|
B|-(0)-----------------------|-------------------------|
G|---------------------------|-------------------------|
D|---------------------------|-------------------------|
A|---------------------------|-------------------------|
E|---------------------------|-------------------------|


  A5
  PM------------------------------|
|-----------------|------------------|
|-----------------|------------------|
|-----------------|------------------|
|-----------------|------------------|
|-0-0-0-0-0-0-0-0-|-0-0-0-0-0-0-0-0--|
|-----------------|------------------|
|
e|-----------------|------------------|
B|-----------------|------------------|
G|-----------------|------------------|
D|-----------------|------------------|
A|-----------------|------------------|
E|-----------------|------------------|


  PM------------------------|
|-----------------|---------------------|
|-----------------|---------------------|
|-----------------|-----------2-----0h2-|
|---------------2-|-2-2-2-2-2-2-0h2-----|
|-0-0-0-0-0-0-0-0-|-0-0-0-0-0-0---------|
|-----------------|---------------------|
|
 | Gtr III
e|-----------------|---------------------|
B|-----------------|---------------------|
G|-----------------|---------------------|
D|-----------------|---------------------|
A|-----------------|---------------------|
E|-----------------|---------------------|


   Am
e|-----0-0-0-0-0-0-0---0---|-----0-0-0-0-0-0--------------|
B|-----1-1-1-1-1-1-1h3-0h1-|-----1-1-1-1-1-1--------------|
G|-----2-2-2-2-2-2-2---2---|-----2-2-2-2-2-2-------0h=2---|
D|---2-2-2-2-2-2-2-2---2---|---2-2-2-2-2-2-2--0h2---------|
A|-0---0-0-0-0-0-0-0---0---|-0---0-0-0-0-0-0--------------|
E|-------------------------|------------------------------|
|
e|-------------------------|------------------------------|
B|-------------------------|------------------------------|
G|-------------------------|-----------------12---12h14---|
D|-------------------------|------------------------------|
A|-------------------------|------------------------------|
E|-------------------------|------------------------------|


e|---------0-0-0-0---0-0--0-----0----|------0-0-0-0-0-0------------||
B|---------1-1-1-1---1-1--1h=3--0h=1-|------1-1-1-1-1-1------------||
G|---------2-2-2-2---2-2--2-----2----|------2-2-2-2-2-2--------0h2-||
D|-------2-2-2-2-2---2-2--2-----2----|----2-2-2-2-2-2-2---0h=2-----||
A|-----0---0-0-0-0---0-0--0-----0----|--0---0-0-0-0-0-0------------||
E|-----------------------------------|-----------------------------||
|
e|-----------------------------------|-----------------------------||
B|-----------------------------------|-----------------------------||
G|-12h14-----------------12----12h14-|-14--------------------------||
D|-----------------/14------14-------|-----------------------------||
A|-----------------------------------|-----------------------------||
E|-----------------------------------|------------------/15\-------||


[Chorus]

             G         F         Fmaj7sus2
e|-0---0-0-0-3-3-3-3-|-1-1-1-1-1-0-0-0-0-0-|
B|-1---1-1-1-0-0-0-0-|-1-1-1-1-1-1-1-1-1-1-|
G|-2---2-2-2-0-0-0-0-|-2-2-2-2-2-0-0-0-0-0-|
D|-2---2-2-2-0-0-0-0-|-3-3-3-3-3-3-3-3-3-3-|
A|-0---0-0-0-x-x-x-x-|-3-3-3-3-3-3-3-3-3-3-|
E|-----------3-3-3-3-|-1-1-1-1-1-1-1-1-1-1-|
|
e|-------------------|---------------------|
B|-----3-0-------3-3-|-1-------------------|
G|---2---------------|---------------------|
D|-----------3-------|---------------------|
A|-------------------|---------------------|
E|-------------------|---------------------|


   Am       G         F         Fmaj7sus2
e|-0--0-0-0-3-3-3-3-|-1-1-1-1-1-0-0-0-0-0-|
B|-1--1-1-1-0-0-0-0-|-1-1-1-1-1-1-1-1-1-1-|
G|-2--2-2-2-0-0-0-0-|-2-2-2-2-2-0-0-0-0-0-|
D|-2--2-2-2-0-0-0-0-|-3-3-3-3-3-3-3-3-3-3-|
A|-0--0-0-0-x-x-x-x-|-3-3-3-3-3-3-3-3-3-3-|
E|----------3-3-3-3-|-1-1-1-1-1-1-1-1-1-1-|
|
e|------------------|---------------------|
B|------------------|---------------------|
G|------------------|-2-------------------|
D|------------------|-3-------------------|
A|------------------|-3-------------------|
E|------------------|-1-------------------|


     D       F           C/G       G
e||--2---2-0-1---1-1-1-|-0-0-0-0-0-3--3---|
B||o-3---3-0-1---1-1-1-|-1-1-1-1-1-0--0---|
G||--2---2-0-2---2-2-2-|-0-0-0-0-0-0--0---|
D||--0---0-0-3---3-3-3-|-2-2-2-2-2-0--0---|
A||o---------3---3-3-3-|-3-3-3-3-3-x--x---|
E||----------1---1-1-1-|-3-3-3-3-3-3--3---|
|
e||--------------------|------------------|
B||o-----3---1---1-----|-----1--------0---|
G||----2---2---2-------|---0---0----------|
D||--0-----------------|------------------|
A||o-------------------|-3----------------|
E||--------------------|-----------3------|


   1.                     2.
   F                      F                     Fmaj7sus2
e|---------------------||---------------------|-0-------------------------||
B|--------------------o||-----------------1---|---1-----1-1-1-1-1---------||
G|---------------------||---------------2-----|-----0-0-0-0-0-0-0-----0h2-||
D|-3-3-(3)-3-3-(3)-----||-3-3-(3)-3-(3)-----3-|---------3-3-3-3-3-0h2-----||
A|-3-3-(3)-3-3-(3)----o||-3-3-(3)-3-(3)-------|---------------------------||
E|-1-1-(1)-1-1-(1)-----||-1-1-(1)-1-(1)-------|---------------------------||
|
e|---------------------||---------------------|---------------------------||
B|-1-1-(1)-1---(1)----o||-1-1-(1)-1-(1)-------|---------------------------||
G|-2-2-(2)-2---(2)-----||-2-2-(2)-2-(2)-------|---------------------------||
D|-3-3-(3)-3---(3)-----||-3-3-(3)-3-(3)-------|---------------------------||
A|-3-3-(3)-3---(3)----o||-3-3-(3)-3-(3)-------|---------------------------||
E|-1-1-(1)-1---(1)-----||-1-1-(1)-1-(1)-------|---------------------------||


[Verse]

   Am
e|-----0-0-0-0-0-0-0---0---|-----0-0-0-0-0-0----------|
B|-----1-1-1-1-1-1-1h3-0h1-|-----1-1-1-1-1-1----------|
G|-----2-2-2-2-2-2-2---2---|-----2-2-2-2-2-2-----0h2--|
D|---2-2-2-2-2-2-2-2---2---|---2-2-2-2-2-2-2-0h2------|
A|-0---0-0-0-0-0-0-0---0---|-0---0-0-0-0-0-0----------|
E|-------------------------|--------------------------|
|
e|-------------------------|--------------------------|
B|-------------------------|--------------------------|
G|-------------------------|--------------------------|
D|-------------------------|--------------------------|
A|-------------------------|---------------------3h5--|
E|-------------------------|--------------------------|


e|-----0-0-0-0-0-0-0---0---|-----0-0-0-0-0-0---------|
B|-----1-1-1-1-1-1-1h3-0h1-|-----1-1-1-1-1-1---------|
G|-----2-2-2-2-2-2-2---2---|-----2-2-2-2-2-2-----0h2-|
D|---2-2-2-2-2-2-2-2---2---|---2-2-2-2-2-2-2-0h2-----|
A|-0---0-0-0-0-0-0-0---0---|-0---0-0-0-0-0-0---------|
E|-------------------------|-------------------------|
|
 |                                                 <
 | ~
e|-------------------------|-------------------------|
B|-------------------------|-------------------------|
G|-------------------------|-----------------------7-|
D|-------------------------|-------------------------|
A|-------------------------|-------------------------|
E|-5-----------------------|-------------------------|


e|----------0--0-0-0-0-0-0---0---|-----0-0-0-0-0-0------------|
B|----------1--1-1-1-1-1-1h3-0h1-|-----1-1-1-1-1-1------------|
G|----------2--2-2-2-2-2-2---2---|-----2-2-2-2-2-2-----0h2----|
D|-------2--2--2-2-2-2-2-2---2---|---2-2-2-2-2-2-2-0h2--------|
A|--0-------0--0-0-0-0-0-0---0---|-0---0-0-0-0-0-0------------|
E|-------------------------------|----------------------------|
|
 |                           PM
e|-------------------------------|----------------------------|
B|-------------------------------|----------------------------|
G|-(7)b9r==(7)---------------5---|----------------------------|
D|---------------------------7---|---------------------5-7----|
A|-------------------------------|-----------------5h7---7----|
E|-------------------------------|----------------------------|


e|---------0-0-0-0-0-0-0---0---|-0--0-0-0----|
B|---------1-1-1-1-1-1-1h3-0h1-|-1--1-1-1----|
G|---------2-2-2-2-2-2-2---2---|-2--2-2-2----|
D|-----2---2-2-2-2-2-2-2---2---|-2--2-2-2----|
A|-0-------0-0-0-0-0-0-0---0---|-0--0-0-0----|
E|-----------------------------|-------------|
|
 |                               ~
e|-----------------------------|-------------|
B|-----------------------------|-------------|
G|-----------------------------|-------------|
D|-5-7---5-7---------------5h7-|-7-----------|
A|---------------------5h7-----|-------------|
E|-----------------------------|-------------|


   D        F          C/G   G
e|-2--2-2-2-1--1-1-1-|-0--0--3-3-3-3--|
B|-3--3-3-3-1--1-1-1-|-1--1--0-0-0-0--|
G|-2--2-2-2-2--2-2-2-|-0--0--0-0-0-0--|
D|-0--0-0-0-3--3-3-3-|-2--2--0-0-0-0--|
A|----------3--3-3-3-|-3--3--x-x-x-x--|
E|----------1--1-1-1-|-3--3--3-3-3-3--|
|
 | Gtr II
e|-2--2-2-2-1--1-1-1-|-0--0--3-3-3-3--|
B|-3--3-3-3-1--1-1-1-|-1--1--0-0-0-0--|
G|-2--2-2-2-2--2-2-2-|-0--0--0-0-0-0--|
D|-0--0-0-0-3--3-3-3-|-2--2--0-0-0-0--|
A|----------3--3-3-3-|-3--3--x-x-x-x--|
E|----------1--1-1-1-|-3--3--3-3-3-3--|


   F
e|-1-1-(1)-1-(1)----|-1-1-(1)-1-(1)----|
B|-1-1-(1)-1-(1)----|-1-1-(1)-1-(1)----|
G|-2-2-(2)-2-(2)----|-2-2-(2)-2-(2)----|
D|-3-3-(3)-3-(3)----|-3-3-(3)-3-(3)----|
A|-3-3-(3)-3-(3)----|-3-3-(3)-3-(3)----|
E|-1-1-(1)-1-(1)----|-1-1-(1)-1-(1)----|
|
e|-1-1-(1)-1-(1)----|-1-1-(1)-1-(1)----|
B|-1-1-(1)-1-(1)----|-1-1-(1)-1-(1)----|
G|-2-2-(2)-2-(2)----|-2-2-(2)-2-(2)----|
D|-3-3-(3)-3-(3)----|-3-3-(3)-3-(3)----|
A|-3-3-(3)-3-(3)----|-3-3-(3)-3-(3)----|
E|-1-1-(1)-1-(1)----|-1-1-(1)-1-(1)----|


[Bridge]
                     1.
     Am              G           Am
e||------0--0-0-0--|-3-3-(3)-3-3-0-0-0----------||
B||o-----1--1-1-1--|-0-0-(0)-0-0-1-1-1---------o||
G||------2--2-2-2--|-0-0-(0)-0-0-2-2-2-----0h2--||
D||----2-2--2-2-2--|-0-0-(0)-0-0-2-2-2-0h2------||
A||o-0---0--0-0-0--|-x-x-(x)-x-x-0-0-0---------o||
E||----------------|-3-3-(3)-3-3----------------||
|
e||------0--0-0-0--|-3-3-(3)-3-3-0-0-0----------||
B||o-----1--1-1-1--|-0-0-(0)-0-0-1-1-1---------o||
G||------2--2-2-2--|-0-0-(0)-0-0-2-2-2-----0h2--||
D||----2-2--2-2-2--|-0-0-(0)-0-0-2-2-2-0h2------||
A||o-0---0--0-0-0--|-x-x-(x)-x-x-0-0-0---------o||
E||----------------|-3-3-(3)-3-3----------------||


   2.
   G    Am
e|-3-3--0-(0)-0-0---------|-----0--0-0-0--|
B|-0-0--1-(1)-1-1---------|-----1--1-1-1--|
G|-0-0--2-(2)-2-2-----0h2-|-----2--2-2-2--|
D|-0-0--2-(2)-2-2-0h2-----|---2-2--2-2-2--|
A|-x-x--0-(0)-0-0---------|-0---0--0-0-0--|
E|-3-3--------------------|---------------|


   G           Am
e|-3-3-(3)-3-3-0-0-0---------|-----0--0-0-0----|
B|-0-0-(0)-0-0-1-1-1---------|-----1--1-1-1----|
G|-0-0-(0)-0-0-2-2-2-----0h2-|-----2--2-2-2----|
D|-0-0-(0)-0-0-2-2-2-0h2-----|---2-2--2-2-2----|
A|-x-x-(x)-x-x-0-0-0---------|-0---0--0-0-0----|
E|-3-3-(3)-3-3---------------|-----------------|


   G     Am              Asus2    G6add9      D/F#      Fsus2
                                                                      3x
e|-3-3-3-0-0-0-0-0-0-||-----0-0-0-----0-0-0-|-------------------------||
B|-0-0-0-1-1-1-1-1-1-||o----0-0-0-----0-0-0-|-3-3-(3)-3-1-1-1-1-1-1--o||
G|-0-0-0-2-2-2-2-2-2-||-----2-2-2-----2-2-2-|-2-2-(2)-2-0-0-0-0-0-0---||
D|-0-0-0-2-2-2-2-2-2-||-----2-2-2-----0-0-0-|-0-0-(0)-0-3-3-3-3-3-3---||
A|-x-x-x-0-0-0-0-0-0-||o-0--0-0-0-----x-x-x-|-x-x-(x)-x-3-3-3-3-3-3--o||
E|-3-3-3-------------||-----------3-3-3-3-3-|-2-2-(2)-2-1-1-1-1-1-1---||


[Breakdown]

   Asus2
e|-0--------|---------|----------|-------------||
B|-0--------|---------|----------|-------------||
G|-2--------|---------|----------|-------------||
D|-2--------|---------|----------|-------------||
A|-0--------|---------|----------|-------------||
E|----------|---------|----------|-------------||
|
 | Gtr II
 |                        <
 |                        ~~~~~~~~~~~~~
e|----------|---------|----------|-------------||
B|----------|---------|----------|-------------||
G|----------|---------|---5------|-(5)------5--||
D|----------|---------|----------|-------------||
A|----------|---------|----------|-------------||
E|----------|---------|----------|-------------||


  Interlude
   Asus2    G6add9      D/F#        Fsus2
e|----0-0-0-----0-0-0-|----------------------------------|
B|----0-0-0-----0-0-0-|-3----3-(3)3-1--1--1-1---1-1------|
G|----2-2-2-----2-2-2-|-2----2-(2)2-0--0--0-0---0-0------|
D|----2-2-2-----0-0-0-|-0----0-(0)0-3--3--3-3---3-3------|
A|-0--0-0-0-----x-x-x-|-x----x-(x)x-3--3--3-3---3-3------|
E|----------3-3-3-3-3-|-2----2-(2)2-1--1--1-1---1-1------|
|
 |                                  ~~~~~~
e|--------------------|----------------------------------|
B|--------------------|---------------------------0-x----|
G|--------------------|-------------5-(5)-------5-0-x----|
D|--------------------|---------5h7-------0-5h7----------|
A|--------------------|---/8-----------------------------|
E|--------------------|----------------------------------|


   Asus2             G6add9                D/F#              Fsus2
e|---------0-0---0-----------------0-0-0-|------------------------------------||
B|---------0-0---0-----------------0-0-0-|-3---------3-(3)-3-1-----1--1-1-1-1-||
G|---------2-2---2-----------------2-2-2-|-2---------2-(2)-2-0-----0--0-0-0-0-||
D|---------2-2---2-----------------0-0-0-|-0---------0-(0)-0-3-----3--3-3-3-3-||
A|-0-------0-0---0-----------------x-x-x-|-x---------x-(x)-x-3-----3--3-3-3-3-||
E|-------------------3-----3-------3-3-3-|-2---------2-(2)-2-1-----1--1-1-1-1-||
|
 |                                                                 ~~~~~~~~~~~~~
e|---------------------------------------|---------5--------------------------||
B|---------------------------------------|-----------8-(8)-5-8b10-(8)---------||
G|-5b6-(5)---x-----------x-5b6-(5)-------|-7b8-(7)----------------------------||
D|---------7---x-------x-----------7-0-0-|------------------------------------||
A|-----------------x-x-------------------|------------------------------------||
E|---------------------------------------|------------------------------------||


[Verse]

   Asus2      G6add9      D/F#      Fsus2
e|------0-0-0-----0-0-0-|-----------------------|
B|------0-0-0-----0-0-0-|-3-3-(3)-3-1-1-1-1-1-1-|
G|------2-2-2-----2-2-2-|-2-2-(2)-2-0-0-0-0-0-0-|
D|------2-2-2-----0-0-0-|-0-0-(0)-0-3-3-3-3-3-3-|
A|--0---0-0-0-----x-x-x-|-x-x-(x)-x-3-3-3-3-3-3-|
E|------------3-3-3-3-3-|-2-2-(2)-2-1-1-1-1-1-1-|
|
 |  >
 |~~~~~
e|----------------------|-----------------------|
B|-(8)------------------|-----------------------|
G|----------------------|-----------------------|
D|----------------------|-----------------------|
A|----------------------|-----------------------|
E|----------------------|-----------------------|


   Asus2      G6add9    D/F#      Fsus2
e|----0-0-0-----0-0-0-|-----------------------||
B|----0-0-0-----0-0-0-|-3-3-(3)-3-1-1-1-1-1-1-||
G|----2-2-2-----2-2-2-|-2-2-(2)-2-0-0-0-0-0-0-||
D|----2-2-2-----0-0-0-|-0-0-(0)-0-3-3-3-3-3-3-||
A|-0--0-0-0-----x-x-x-|-x-x-(x)-x-3-3-3-3-3-3-||
E|----------3-3-3-3-3-|-2-2-(2)-2-1-1-1-1-1-1-||
|
e|--------------------|-----------------------||
B|--------------------|-------------0---------||
G|--------------------|-------------0---------||
D|--------------------|-----------x-----------||
A|--------------------|-----------------------||
E|--------------------|-----------------------||


[Outro]

   Asus2       G6add9        D/F#        Fsus2
e|-------0-0-0-----0---0-0-|-----------------------------|
B|-------0-0-0-----0---0-0-|--3--3-(3)-3-1-1---1-1-1---1-|
G|-------2-2-2-----2---2-2-|--2--2-(2)-2-0-0---0-0-0---0-|
D|-------2-2-2-----0---0-0-|--0--0-(0)-0-3-3---3-3-3---3-|
A|-0-----0-0-0-----x---x-x-|--x--x-(x)-x-3-3---3-3-3---3-|
E|-------------3-3-3---3-3-|--2--2-(2)-2-1-1---1-1-1---1-|
|
 |       ~~~~~~~~      ~~~~~~~~~~
e|-------------------------|-----------------------------|
B|-------------------------|---------------------5-----5-|
G|-------------------------|---------------7b9-----7b9---|
D|-5tr7--7-----7---5h7-7---|-(7)-------------------------|
A|-------------------------|-----------------------------|
E|-------------------------|-----------------------------|


   Asus2       G6add9            D/F#            Fsus2
e|-------0-0-0---------0---0-0-|--------------------------------|
B|-------0-0-0---------0---0-0-|-3-----3---(3)-3-1-1----1-1-1-1-|
G|-------2-2-2---------2---2-2-|-2-----2---(2)-2-0-0----0-0-0-0-|
D|-------2-2-2---------0---0-0-|-0-----0---(0)-0-3-3----3-3-3-3-|
A|-0-----0-0-0---------x---x-x-|-x-----x---(x)-x-3-3----3-3-3-3-|
E|-------------3---3---3---3-3-|-2-----2---(2)-2-1-1----1-1-1-1-|
|
 |                                          ~~~
e|-----------------------------|--------------------------------|
B|-8b10--8-----8-8-6-5-6p5-----|-----5-------------6----------0-|
G|-------------------------6---|-7b9---7b9-(7)-----8b10-------0-|
D|-----------------------------|--------------------------------|
A|-----------------------------|--------------------------------|
E|-----------------------------|--------------------------------|


   Asus2                                 G6add9
e|--------------------0--------0----0-----------------------0--------0----0------|
B|--------------------0--------0----0-----------------------0--------0----0------|
G|--------------------2--------2----2-----------------------2--------2----2------|
D|--------------------2--------2----2-----------------------0--------0----0------|
A|--0-----------------0--------0----0-----------------------x--------x----x------|
E|----------------------------------------3--------3--------3--------3----3------|
|
e|-------------------------------------------------------------------------------|
B|-17p13----17p13----17p13----17p13------18p13----18p13----18p13----18p13--------|
G|-------14-------14-------14---------14-------14-------14-------14---------14---|
D|-------------------------------------------------------------------------------|
A|-------------------------------------------------------------------------------|
E|-------------------------------------------------------------------------------|


   D/F#                      Fsus2
e|-------------------------------------------------------------|
B|--3-------------3----(3)-3-1---------1---1--1-------1----1---|
G|--2-------------2----(2)-2-0---------0---0--0-------0----0---|
D|--0-------------0----(0)-0-3---------3---3--3-------3----3---|
A|--x-------------x----(x)-x-3---------3---3--3-------3----3---|
E|--2-------------2----(2)-2-1---------1---1--1-------1----1---|
|
e|----------------------------------------------(15)-------0-0-|
B|-17p13----17p13------17------15b17-(15)-15-13--15--15--------|
G|-------14---------14----------------------------------14-----|
D|-------------------------------------------------------------|
A|-------------------------------------------------------------|
E|-------------------------------------------------------------|


   Asus2           G6add9
e|---------0---0-0---------0-0-0--|
B|---------0---0-0---------0-0-0--|
G|---------2---2-2---------2-2-2--|
D|---------2---2-2---------0-0-0--|
A|-0-------0---0-0---------x-x-x--|
E|------------------3--3---3-3-3--|
|
 |           ~~~~~~~~~~    ~
e|--------------------------------|
B|-5h6---5------------------------|
G|-----7---5-7-----(7)------------|
D|---------------------7p5-7------|
A|--------------------------------|
E|--------------------------------|


   D/F#          Fsus2           E
e|-----------------------------|-----------------------------|
B|-3-----3-(3)-3-1---1-1-1-1-1-|-----------------------------|
G|-2-----2-(2)-2-0---0-0-0-0-0-|-1-1--1----1--1----1-1-1-1-1-|
D|-0-----0-(0)-0-3---3-3-3-3-3-|-2-2--2----2--2----2-2-2-2-2-|
A|-x-----x-(x)-x-3---3-3-3-3-3-|-2-2--2----2--2----2-2-2-2-2-|
E|-2-----2-(2)-2-1---1-1-1-1-1-|-0-0--0----0--0----0-0-0-0-0-|
|
 |                                    ~~~~~~~~~~~~~
e|-----------------------------|-----------------------------|
B|-----------------------------|-----20b22---20b22-----------|
G|-----------------------5-----|-----------------------------|
D|-5-5-5-5--5----5-5-5h7---7---|-----------------------------|
A|-------------7---------------|-----------------------------|
E|-----------------------------|-----------------------------|


   F                                       G
e|-------------------------------------------------|
B|-------------------------------------------------|
G|--2-----x--2--x--x--2-----x--2----2-2--2-4--4--4-|
D|--3-----x--3--x--x--3-----x--3----3-3--3-5--5--5-|
A|--3-----x--3--x--x--3-----x--3----3-3--3-5--5--5-|
E|--1-----x--1--x--x--1-----x--1----1-1--1-3--3--3-|
|
e|-------------------------20----------------------|
B|-18b20r18-17-18-17-------20----------------------|
G|-------------------19b21----19b21-----19---19-19-|
D|-------------------------------------------------|
A|-------------------------------------------------|
E|-------------------------------------------------|


   E
e|--------------------------------------------|
B|--------------------------------------------|
G|--1-1--1--1--1-----1--1--1--------1----1----|
D|--2-2--2--2--2-----2--2--2--------2----2----|
A|--2-2--2--2--2-----2--2--2--------2----2----|
E|--0-0--0--0--0-----0--0--0--------0----0----|
|
e|--------------------------------------------|
B|--------------------------------------------|
G|-17---17-17-17-16-16-14-14-14-14-12-12---12-|
D|--------------------------------------------|
A|--------------------------------------------|
E|--------------------------------------------|


   F                               G
e|---------------------------------------|
B|---------------------------------------|
G|--2----2-----2---2--2--2-2-2-2-2-4-4-4-|
D|--3----3-----3---3--3--3-3-3-3-3-5-5-5-|
A|--3----3-----3---3--3--3-3-3-3-3-5-5-5-|
E|--1----1-----1---1--1--1-1-1-1-1-3-3-3-|
|
e|---------------------------------------|
B|---------------------------------------|
G|-12-12---12-10--10-10-10---x-x-x-x-----|
D|-----------------x--x--x---x-x-x-x-----|
A|-----------------8--8--8---x-x-x-x-----|
E|-----------------------------------0-0-|


   E
e|-------------------------------|
B|-------------------------------|
G|-1-1-1---1---1---1---1-1-1-1---|
D|-2-2-2---2---2---2---2-2-2-2---|
A|-2-2-2---2---2---2---2-2-2-2---|
E|-0-0-0---0---0---0---0-0-0-0---|
|
e|-----------------------5-------|
B|-------------------------5-8-5-|
G|-------------7-5-7b9-----------|
D|---------5---------------------|
A|-----5h7---7-------------------|
E|-0-----------------------------|


   F
e|-----------------------------------------------|
B|-----------------------------------------------|
G|-2----2-2----(2)-2-2-----2-------2-2-(2)---2-2-|
D|-3----3-3----(3)-3-3-----3-------3-3-(3)---3-3-|
A|-3----3-3----(3)-3-3-----3-------3-3-(3)---3-3-|
E|-1----1-1----(1)-1-1-----1-------1-1-(1)---1-1-|
|
e|-----------------------------------------------|
B|-6------6----(6)---6----(6)-6---------6--------|
G|-8b10---8b10-(8)---8b10-(8)-8b10------8b10-----|
D|-----------------------------------------------|
A|-----------------------------------------------|
E|-----------------------------------------------|


e|-------------------------------------------------------------|
B|-------------------------------------------------------------|
G|--2----2--2-----(2)-2--2------2---------2-----2----(2)---2-2-|
D|--3----3--3-----(3)-3--3------3---------3-----3----(3)---3-3-|
A|--3----3--3-----(3)-3--3------3---------3-----3----(3)---3-3-|
E|--1----1--1-----(1)-1--1------1---------1-----1----(1)---1-1-|
|
e|-------------------------------------------------------------|
B|-13------13----(13)---13----(13)-13----13----13----13--------|
G|-15b17---15b17-(15)---15b17-(15)-15b17-15b17-15b17-15b17-----|
D|-------------------------------------------------------------|
A|-------------------------------------------------------------|
E|-------------------------------------------------------------|


e|---------------------------------|
B|---------------------------------|
G|--2----2-2-(2)-2-2-2-2-2-(2)-2-2-|
D|--3----3-3-(3)-3-3-3-3-3-(3)-3-3-|
A|--3----3-3-(3)-3-3-3-3-3-(3)-3-3-|
E|--1----1-1-(1)-1-1-1-1-1-(1)-1-1-|
|
 |  TP
e|-13------------------------------|
B|-16b18---------------------------|
G|---------------------------------|
D|---------------------------------|
A|---------------------------------|
E|---------------------------------|


                                    H.=H
     TP
e|----------------|---------------|-----|
B|----------------|---------------|-----|
G|---2------------|--2------------|-----|
D|---3------------|--3------------|-----|
A|---3------------|--3------------|-----|
E|---1------------|--1------------|-----|
|
 |   TP
e|-(13)-----------|-13\-----------|-----|
B|-(16)b18--------|-16b18\--------|-----|
G|----------------|---------------|-----|
D|----------------|---------------|-----|
A|----------------|---------------|-----|
E|----------------|---------------|-----|


   FrH.=Hime Q=60                     Q=40
   Amadd9
e|-----0---0-----0---0-------0---:-----------*|
B|-------0-----0-------0---0-----:-----------*|
G|---5-------5-----5-----5-----5-:-----------*|
D|-------------------------------:-0--<7>----*|
A|-0-----------------------------:-----------*|
E|-------------------------------:-----------*|


Tablature Legend
----------------
 h   - hammer-on
 p   - pull-off
 b   - bend
 pb  - pre-bend
 r   - bend release (if no number after the r, then release immediately)
 /\  - slide into or out of (from/to "nowhere")
 s   - legato slide
 S   - shift slide
  - natural harmonic
[n]  - artificial harmonic
n(n) - tapped harmonic
 ~   - vibrato
 tr  - trill
 T   - tap
 TP  - trem. picking
 PM  - palm muting
\n/  - tremolo bar dip; n = amount to dip
 \n  - tremolo bar down
 n/  - tremolo bar up
/n\  - tremolo bar inverted dip
 =   - hold bend; also acts as connecting device for hammers/pulls
 <>  - volume swell (louder/softer)
 x   - on rhythm slash represents muted slash
 o   - on rhythm slash represents single note slash

Misc Legend
-----------
 |  - bar
||  - double bar
||o - repeat start
o|| - repeat end
*|  - double bar (ending)
 :  - bar (freetime)
 $  - Segno
 &  - Coda
Tempo markers -  = BPM(8/16=s8/s16), where s8 = swing 8ths, s16 = swing 16ths
Suggest correction
comments
print report bad tab
52 comments total. Showing first comments.
0 reply
Alex S. 60 wrote on October 3 2006, 05:26 pm

Nice job man

0 reply
oh... THAT guy 272 wrote on October 15 2006, 09:21 am

good!

+1 reply
musiclover2399 20 wrote on October 28 2006, 06:17 pm

Very comprehensive! 5 stars!! Kickass

guest
You may want to rate the tab now too:
select rating
Please do not post tabs as comments. Select "correction" instead!