Oops, an error
Loading. Please wait.

Wonderboy solo tab

version 2
version 2

Solo

Whole song

Interactive

9,326 views 1 this week
3 commentsread comments
1 2 3 4 5
x 3
add to favorites
×
Save as Personal and add changes to this tab that will be seen only by you. Learn more ›
×
You can save this tab as Personal to edit and correct it or add notes. All changes will be seen only by you. Learn more »
launch autoscroll
font size
0
reset
how to read this tab
guitar tuner
edit
Autoscroll
slow
fast
+/-
esc
set tempo
stop
Author
------------------------------------------------------------------------
                             WONDERBOY - Tenacious D
------------------------------------------------------------------------
Tabbed by: Jesse Kennedy

note: this is a pretty cool song, and the solo is great. i had to use windows media
to slow it down[while still preserving the pitch] to get the really fast part figured out.
i did all this on my electric... because it will be incredibly hard to get it down good
acoustic. and also, this is MY way of playing the solo, so althought i'm almost 100% all
right notes are there, i didn't really dedicate too much time to searching for vibrato's
all that. enjoy!


e|---10------10-----10------10--12--12b13r12--10-----------------------|
B|-------10------10----10------------------------10--10h11--10--8--11--|
G|---------------------------------------------------------------------|
D|---------------------------------------------------------------------|
A|---------------------------------------------------------------------|
E|-------------------------------------------------------------------- |


e|----15p14p12--15p14p12--15p14p12--15p14p12--15p14p12--15p14p12-------|
B|---------------------------------------------------------------------|
G|---------------------------------------------------------------------|
D|---------------------------------------------------------------------|
A|---------------------------------------------------------------------|
E|---------------------------------------------------------------------|


e|---15p14p12--15p14p12--17p15p14------14------------------------------|
B|---------------------------------17-----17---15--17--15--13--15--13--|
G|---------------------------------------------------------------------|
D|---------------------------------------------------------------------|
A|---------------------------------------------------------------------|
E|---------------------------------------------------------------------|


e|---------------------------------------------------------------------|
B|---------13-------13—13h14--13--------13-----------------------------|
G|----15-------15----------------------------15--14~-------------------|
D|---------------------------------------------------------------------|
A|---------------------------------------------------------------------|
E|---------------------------------------------------------------------|


| /  slide up
|   slide down
| h  hammer-on
| p  pull-off
| ~  vibrato
| +  harmonic
| x  Mute note
=======================================================================
Suggest correction
Creating personal tab
Creating personal tab
You can edit any tab online and save it as your Personal.

You can edit, replace or remove any tab part or add personal notes – all changes will be seen only by you.

Personal tabs can be accessed anytime from any device, even offline.
Learn more »
Give kudos to tab author, rate the tab!
1 2 3 4 5
comments
print report bad tab
3 comments total.
0 reply
rocknroll22 203 Jun 18, 2006 04:02 PM

this isnt how they play it, but it sounds damn good

0 reply
hashm4g17 271 Dec 18, 2007 12:36 AM

good old windows media player haha... :-) spot on

0 reply
ShuterTater117 10 Jan 02, 2010 11:55 AM

it isn't fully right but thanks for the effort. i don't think he can hit the note in the 17th fret on an acoustic because he doesnt use a guitar with a neck cutout.still thanks much.

guest
You may want to rate the tab now too:
select rating
Wanna post a correction for this tab? Suggest correction