Oops, an error
Loading. Please wait.

Wonderboy tab

version 1
version 1

Whole song

Interactive

278,090 views 141 this week
45 commentsread comments
1 2 3 4 5
x 92
add to favorites
×
Save as Personal and add changes to this tab that will be seen only by you. Learn more ›
×
You can save this tab as Personal to edit and correct it or add notes. All changes will be seen only by you. Learn more »
launch autoscroll
font size
0
reset
how to read this tab
guitar tuner
edit
Autoscroll
slow
fast
+/-
esc
set tempo
stop
Author
Unregistered
Author/Artist: Tenacious D
Title: Wonderboy
Transcribed by: Jonathan Meisburg
Email: pbpaintball@yahoo.com


Standard Tuning.


[Verse 1]

Guitar 1:
e|---2-----2h3p2--------1p0-----1p0---------2-----2h3p2-------1p0-----1p0-------|
B|-----3-----------3--------3-------3---3-----3-----------3-------3-------3---3-|(x3)
G|-------2-------2----3-------3-------3---------2-------2---3-------3-------3---|
D|-0--------------------------------------0-------------------------------------|
A|------------------------------------------------------------------------------|
E|------------------------------------------------------------------------------|
                                                                              
  Guitar 2:
e|-5---------------5-----------5/6-6---8-6-5----5/6-6----9--6--5----------------|
B|-7---------------7-----3/10--7/8-8--10-8-7----7/8-8----8--8--7----------------|
G|-7---------------7------------------------------------------------------------|on 2nd time 
D|------------------------------------------------------------------------------|   Around
A|------------------------------------------------------------------------------|
E|------------------------------------------------------------------------------|


[Interlude]

e|------------------------------------------------------------------------------|
B|------------------------------------------------------------------------------|
G|-7-7-7-7-7-7-7-7-6-6-6-6-6-6-6-6-----------------------------7----------------|
D|-7-7-7-7-7-7-7-7-6-6-6-6-6-6-6-6-5-5-5-5-5-5-5-5-7-7-7-7-5-7-7----------------|
A|-5-5-5-5-5-5-5-5-4-4-4-4-4-4-4-4-5-5-5-5-5-5-5-5-7-7-7-7-5-7-5----------------|
E|---------------------------------3-3-3-3-3-3-3-3-5-5-5-5-3-5------------------|
 Not much to say When you're high above the mucky-muck... Yeaaauh! 


[Chorus]

e|---5--3-2---2-----2----------5p3-----5p3--------------------------------------|
B|--------------3-----3---2--------3-------3------------------------------------|
G|-3--------------2-----2----3-------3------------------------------------------|
D|----------0-------------------------------------------------------------------|
A|------------------------------------------------------------------------------|
E|------------------------------------------------------------------------------|
WonderBooyeee! What is the secret of your powers?!                                                        
------------------------------------------------------------------------------|
------------------------------------------------------------------------------|
-7-7-7-7-7-7-7-7-6-6-6-6-6-6-6-6-----------------------------7----------------|
-7-7-7-7-7-7-7-7-6-6-6-6-6-6-6-6-5-5-5-5-5-5-5-5-7-7-7-7-5-7-7----------------|
-5-5-5-5-5-5-5-5-4-4-4-4-4-4-4-4-5-5-5-5-5-5-5-5-7-7-7-7-5-7-5----------------|
---------------------------------3-3-3-3-3-3-3-3-5-5-5-5-3-5------------------|
WonderBoooyeeeee! Won't you take me far away from the mucky-muck, man?

Weird story-tellin interlude hehe:
The first half of this interlude is the same riff as the riff used on verse 1 
but only playing some notes.Listen to the song to see what I'm talking about...
Here is the tab of this part from that part on:

e|------------------------------------------------------------------------------|
B|------------------------------------------------------------------------------|
G|-7-7-7-7-7-7-7-7-6-6-6-6-6-6-6-6-4-4-4-4-4-4-4-4------------------------------|
D|-7-7-7-7-7-7-7-7-6-6-6-6-6-6-6-6-4-4-4-4-4-4-4-4-7-7-7-7-7-7-7-7--------------|
A|-5-5-5-5-5-5-5-5-4-4-4-4-4-4-4-4-2-2-2-2-2-2-2-2-7-7-7-7-7-7-7-7--------------|
E|-------------------------------------------------5-5-5-5-5-5-5-5--------------|

What powers you ask?....ahh..how about the power of flight, that do anything for you?It's a limitation
holmes.How bout the power to kill a 

e|------------------------------------------------------------------------------|
B|------------------------------------------------------------------------------|
G|------------------------------------------------------------------------------|
D|-5-5-5-5-5-5-5-5-4-4-4-4-4-4-4-4-1-1-1-1-1-1-1-1------------------------------|
A|-5-5-5-5-5-5-5-5-4-4-4-4-4-4-4-4-2-2-2-2-2-2-2-2------------------------------|
E|-3-3-3-3-3-3-3-3-2-2-2-2-2-2-2-2-2-2-2-2-2-2-2-2------------------------------|
 yak...from 200 yards away. with mind bullets!  

                                  B     B                                        
e|--0/0-0/0-0-----9-----------12-12-10------------------------------------------|
B|--2/3-5/7-8----10--------------------10-10-8-9--------------------------------|
G|------------------------------------------------------------------------------|
D|------------------------------------------------------------------------------|
A|------------------------------------------------------------------------------|
E|------------------------------------------------------------------------------|
Thats telekenesis kyle! ...How about the power to move *you

Then it goes to that what I said before about picking certain notes from riff 1 
then it goes:

e|------------------------------------------------------------------------------|
B|------------------------------------------------------------------------------|
G|-7-7-7-7-7-7-7-7-6-6-6-6-6-6-6-6-4-4-4-4-4-4-4-4---------------7--------------|
D|-7-7-7-7-7-7-7-7-6-6-6-6-6-6-6-6-4-4-4-4-4-4-4-4-7-7-7-7-5--7--7--------------|
A|-5-5-5-5-5-5-5-5-4-4-4-4-4-4-4-4-2-2-2-2-2-2-2-2-7-7-7-7-5--7--5--------------|
E|-------------------------------------------------5-5-5-5-3--5-----------------|

A secret to be told A gold chest- to be bold! Blasting forth with three-part harmony!                       

e|---5--3-2---2-----2----------5p3-----5p3--------------------------------------|
B|--------------3-----3---2--------3-------3------------------------------------|
G|-3--------------2-----2----3-------3------------------------------------------|
D|----------0-------------------------------------------------------------------|
A|------------------------------------------------------------------------------|
E|------------------------------------------------------------------------------|

WonderBooyeee! What is the secret of your powers?! 

e|------------------------------------------------------------------------------|
B|------------------------------------------------------------------------------|
G|-7-7-7-7-7-7-7-7-6-6-6-6-6-6-6-6-4-4-4-4-4-4-4-4---------------7--------------|
D|-7-7-7-7-7-7-7-7-6-6-6-6-6-6-6-6-4-4-4-4-4-4-4-4-7-7-7-7-5--7--7--------------|
A|-5-5-5-5-5-5-5-5-4-4-4-4-4-4-4-4-2-2-2-2-2-2-2-2-7-7-7-7-5--7--5--------------|
E|-------------------------------------------------5-5-5-5-3--5-----------------|
WonderBoooyeeeee! Won't you take me far away from the mucky-muck, man?


[Interlude]

  Guitar 1
e|--------------8-8/10-------------------|
B|---vvvvv---------------------vvvvv-----|             
G|-7/3-------------------------3---------|
D|---------------------------------------|
A|---------------------------------------|
E|---------------------------------------|
Guitar 2 (played when 8 8/10 is played)

e|--B---------|
B|--7--7------|
G|------------|
D|------------|
A|------------|                                                                 
E|------------|


[Verse 2]

e|---------2-----------5p3--------------vv---vv---------------------------------|
B|---3-------3---2---------3---5---3----3----3--vv-vvvvvvvvv--------------------|
G|-----2-------2-----3-------3---3-------------03--2/3\2/3\2--------------------|
D|-0-----0----------------------------0-----------------------------------------|
A|------------------------------------------------------------------------------|
E|------------------------------------------------------------------------------|
Well Wonderboy and Young Nastyman joined forces And they formeda band The likes of 
which have never been seen. And they called themselves Tenacious D..... That's right!

e|------------------------------------------------------------------------------|
B|------------------------------------------------------------------------------|
G|-7-7-7-7-7-7-7-7-6-6-6-6-6-6-6-6-4-4-4-4-4-4-4-4---------------7-------7------|
D|-7-7-7-7-7-7-7-7-6-6-6-6-6-6-6-6-4-4-4-4-4-4-4-4-7-7-7-7-5--7--7----7--7------|
A|-5-5-5-5-5-5-5-5-4-4-4-4-4-4-4-4-2-2-2-2-2-2-2-2-7-7-7-7-5--7--5----7--5------|
E|-------------------------------------------------5-5-5-5-3--5-------5---------|

ME! and KG!(Thats ME!)with (blawh!) TenaAaaaaaaaAacious D! Come fly with me! FLY!


[Solo]                            B

e|-10----10----10----10-12-12-12-10---------------------------------------------|
B|----10----10----10----------------10-10/11-10----10---------------------------|
G|----------------------------------------------12------------------------------|
D|------------------------------------------------------------------------------|
A|------------------------------------------------------------------------------|
E|------------------------------------------------------------------------------|
                                                                              
e|-15p14p12--|
B|-----------| 
G|-----------|
D|-----------|
A|-----------|
E|-----------|

e|-17p15p14-12h14p12-10h12p10-8h10p8--------------B-----------------------------|
B|-----------------------------------11-13-11-13-13-13-11-13--------------------|
G|------------------------------------------------------------------------------|
D|------------------------------------------------------------------------------|
A|------------------------------------------------------------------------------|
E|------------------------------------------------------------------------------|
                                                                              
e|------------------------------------------------------------------------------|
B|------------------------------------------------------------------------------|
G|-11-11/9-9-7-9-11-11/9-9-7-9-7-6-4-2------------------7-----------------------|
D|--x--x-x-x-x-x--x--x-x-x-x-x-x-x-x-2--5-7-5-7-9-7-5-7-x-----------------------|
A|--9--9/7-7-5-7--9--9/7-7-5-7-5-4-2-0--x-x-x-x-x-x-x-x-5-----------------------|
E|--------------------------------------3-5-3-5-7-5-3-5-------------------------|
                                                                              

[Chorus]

e|---5--3-2---2-----2----------5p3-----5p3--------------------------------------|
B|--------------3-----3---2--------3-------3------------------------------------|
G|-3--------------2-----2----3-------3------------------------------------------|
D|----------0-------------------------------------------------------------------|
A|------------------------------------------------------------------------------|
E|------------------------------------------------------------------------------|
WonderBooyeee! What is the secret of your powers?! 

e|------------------------------------------------------------------------------|
B|------------------------------------------------------------------------------|
G|-7-7-7-7-7-7-7-7-6-6-6-6-6-6-6-6-4-4-4-4-4-4-4-4---------------7--------------|
D|-7-7-7-7-7-7-7-7-6-6-6-6-6-6-6-6-4-4-4-4-4-4-4-4-7-7-7-7-5--7--7--------------|
A|-5-5-5-5-5-5-5-5-4-4-4-4-4-4-4-4-2-2-2-2-2-2-2-2-7-7-7-7-5--7--5--------------|
E|-------------------------------------------------5-5-5-5-3--5-----------------|
WonderBoooyeeeee! Won't you take me far away from the mucky-muck, man?
Ending:

  Guitar 1:
e|------------|
B|------------|Repeat till sound ends:
G|-7----------|
D|-7-----8----|
A|-5-----8----|
E|-------6----|

  Guitar 2:
e|----------------V V V V V-| 
B|8-7--7-8-7---7--7---------|
G|----9------9--------------|Repeat til it says:you take the high road I'll take the low...
D|--------------------------|
A|--------------------------|
E|--------------------------|

************************************

| x  Dead note
| h  Hammer-on
| p  Pull-off
| /  Slide up
| \  Slide down
| B  bend

************************************

            
            
Suggest correction
Creating personal tab
Creating personal tab
You can edit any tab online and save it as your Personal.

You can edit, replace or remove any tab part or add personal notes – all changes will be seen only by you.

Personal tabs can be accessed anytime from any device, even offline.
Learn more »
comments
print report bad tab
45 comments total. Showing first comments.
+2 reply
stuartandcow 10 Nov 04, 2001 07:00 PM

Tenacious D kicks ass! They are the best band in the world! Thanks for the tab!

0 reply
eatcrayons 65 Dec 22, 2001 07:00 PM

i think your distorded cords are wrong but awesome job check my tab for wounder boy and i think though are the right cords

0 reply
Shaggy Gremlin 10 Dec 30, 2001 07:00 PM

I think this the best tab job I've ever seen, I think one word was wrong but its forgiveable specially since the rest was awsome

guest
Wanna post a correction for this tab? Suggest correction