Oops, an error
Loading. Please wait.

Angels From The Past Tab

22 views 1 this week
no commentswrite comment
1 2 3 4 5
3 more votes to show rating
add to favorites
launch autoscroll
font size
0
reset
how to read this tab
guitar tuner
Autoscroll
slow
fast
+/-
esc
set tempo
stop
Help us to improve Ultimate-Guitar.com Take our survey!
×
[Intro]   Let ring

e|---------------------------------------------------2-------------------------------------------------|
B|-------------------------------------------------------2---------------------------------------------|
G|--------------------2--------------------------------------2-----------------------------------------|
D|-----------4------------4------------------4-------------------------------4-------4-----------------|
A|-------4-------4------------4----------4-------4-----------------------4-------4-------4-------------|
E|---2-------------------------------2-------------------------------2-----------------------2---------|


e|----------------------------------------------------------------------------|
B|----------------------------------------------------------------------------|
G|--------7--6--4--6-/-4------------11-/--13--14--13--11-13--11--9---6--------|
D|--4---------------------7---4-----------------------------------------------|
A|--------5--4--2--4-/-2------------9--/--11--12--11--9--11--9---7---4--------|
E|--2---------------------5---2-----------------------------------------------|




 (Harmony after Intro)                                      (Chords for harmony F-E)
e|--------------------------------------------------------------------------------------------------------|
B|--------------------------------------------------------------------------------------------------------|
G|----------------6---------------------7--6-----------------------------2----------------------1---------|
D|------7--6---------7--6--7--9--7--6----------9--7--9-------------4--------4-------------2--------2------|
A|--9---------9-------------------------------------------------4-----4--------4-------2-----2--------2---|
E|-----------------------------------------------------------2----------------------0---------------------|


[Verse]

e|--------------------------------------------14---17--14--------------------------------------------|
B|--------------------------------------------17b----------17--14------------------------------------|
G|-----------------------------------------------------------------16--14----------------------------|
D|----------------------------------4--2-----------------------------------16--14--------------------|
A|--2--4-----4-------------2--4-----2--0-------------------------------------------16--14------------|
E|--0--2--2--2--2--2--2----0--2--2---------------------------------------------------------17--14----|


[Chorus]

e|---2-----------------------------------------------------------------------|
B|---2-----------------------------------------------------------------------|
G|---2------7---6-----4----7-------------------------------------------------|
D|---4------7---6-----4----7-------------------------------------------------|
A|---4------5---4-----2----5-------------------------------------------------|
E|---2-----------------------------------------------------------------------|


[Bridge]

e|---------------------------------------------------------------------------|
B|---------------------------------------------------------------------------|
G|---------------------------------------------------------------------------|
D|---------------------------------------------------------------------------|
A|--------7--8--5---7p-5h7p5---3-2-------------------------------------------|
E|---5-------------------------------5--3------------------------------------|


[Outro]

e|---------------------------------------------------------------------------|
B|---------------------------------------------------------------------------|
G|---------------------------------------------------------------------------|
D|---7--5--4--5--4-------4-------------7---5--4---5---4----------------------|
A|-------------------7-------7---5-------------------------7-----------------|
E|---------------------------------------------------------------------------!


REPEAT:VERSE AND CHORUS!


************************************

| h  Hammer-on
| p  Pull-off
| b  Bend
| /  Slide up

************************************
Suggest correction
Give kudos to tab author, rate the tab!
1 2 3 4 5
comments
print report bad tab
guest
You may want to rate the tab now too:
select rating
Wanna post a correction for this tab? Suggest correction