Oops, an error
Loading. Please wait.

By Your Side Tab

version 3
version 3

Whole song

Interactive

51,582 views 99 this week
3 commentsread comments
1 2 3 4 5
x 42
add to favorites
launch autoscroll
font size
0
reset
how to read this tab
guitar tuner
×
Best way to learn
"By Your Side"
Autoscroll
slow
fast
+/-
esc
set tempo
stop
[Intro]
   G                                      Em
e|----------------------------------------------------------|
B|-----------0-------------------0-----------------0--------|
G|----0----0---0----0-----0----0---0----0----0---0---0---0--|
D|------12-------12---------12-------12--------9-------9----|
A|-10------------------10------------------7----------------|
E|----------------------------------------------------------|

                    D
e|---------------------------------------------------|
B|---------0----------------0----------------0-------|
G|---0---0---0---0----0---0---0---0----0---0---0---0-|
D|-----9-------9--------7-------7--------7-------7---|
A|-7----------------5----------------5---------------|
E|---------------------------------------------------|

   C
e|---------------------------------|
B|---------0---------------0-------|
G|---0---0---0---0---0---0---0---0-|
D|-----5-------5-------5-------5---|
A|-3---------------3---------------|
E|---------------------------------|

[Verse 1]
                               Why  are  you  stri-vin
   G
e|----------------------------------------------------------------|
B|-----------0------------------0------------------------0--------|
G|----0----0---0----0----0----0---0-------0-------0----0---0----0-|
D|------12-------12--------12--------12-------------12-------12---|
A|-10-----------------10-----------------------10-----------------|
E|----------------------------------------------------------------|

            these days?                             Why are you

e|---------------------------------------------------------------|
B|-----------0--------------------0------------------0-----------|
G|----0----0---0------0----0----0---0----0----0----0---0-----0---|
D|------12---------12--------12-------12--------12-------12------|
A|-10-------------------10-----------------10--------------------|
E|---------------------------------------------------------------|

   tryin                 to earn grace?                     Why are you
   Em
e|----------------------------------------------------------------------|
B|---------0----------------0----------------0---------------0----------|
G|---0---0---0---0---0---0----0----0---0---0---0---0---0---0---0----0---|
D|-----9-------9-------9---------9-------9-------9-------9-------9------|
A|-7---------------7-----------------7---------------7------------------|
E|----------------------------------------------------------------------|

   cryin?              Let me lift up your face.            Just don't
   D                                       C
e|----------------------------------------------------------------------|
B|---------0-------------------0--------------------0-------------------|
G|---0---0---0---0---0-----0-----0-----0------0---0---0---0-------------|
D|-----7-------7-------7-----------7------------5-------5---------------|
A|-5---------------5-----------------------3----------------3(let ring)-|
E|----------------------------------------------------------------------|

    turn a - way.
             G
e|----------------------------------------------------------------------|
B|----------------------0-------------------0------------------0--------|
G|---------------0----0---0----0-----0----0---0----0----0----0---0----0-|
D|-----------------12-------12---------12-------12--------12-------12---|
A|-----------10-------------------10-----------------10-----------------|
E|----------------------------------------------------------------------|

[Verse 2]
            Why  are you lookin                       for love?
   G
e|--------------------------------------------------------------|
B|-----------0---------------------0-------------------0--------|
G|----0----0---0------0-----0----0---0----0-----0----0---0----0-|
D|------12-------12-----------12-------12---------12-------12---|
A|-10--------------------10------------------10-----------------|
E|--------------------------------------------------------------|

                            Why are   you still searchin
                                                Em
e|----------------------------------------------------------------|
B|-----------0-------------------0-----------------------0--------|
G|----0----0---0----0---0----0------0-----0--------0---0---0---0--|
D|------12-------12-------12----------12-------------9-------9----|
A|-10-----------------10------------------------7-----------------|
E|----------------------------------------------------------------|

     as if I'm not e nough?                     To where will you

e|-----------------------------------------------------------------|
B|---------------0------------------0----------------0-------------|
G|----0-----0-------0-----0---0---0---0---0---0---0-----0-------0--|
D|-------9-------------9--------9-------9-------9----------9-------|
A|-7------------------------7---------------7----------------------|
E|-----------------------------------------------------------------|

   go     child?      Tell me where will you run?
   D                                         C
e|-------------------------------------------------------------|
B|---------0-------------------0---------------------0---------|
G|---0---0---0---0---0------0-----0-------0----0---0---0---0---|
D|-----7-------7-------7-------------7-----------5-------5-----|
A|-5---------------5-------------------------3-----------------|
E|-------------------------------------------------------------|

         To where will you run?                           'Cause I'll be
                           G
e|------------------------------------------------------------------------|
B|-----------0-----------------------0-------------------0----------------|
G|---0---0------0-------0-----0----0---0----0-----0----0----0---------0---|
D|-----5-----------5------------12-------12---------12------------12------|
A|-3-----------------------10------------------10-------------------------|
E|------------------------------------------------------------------------|

[Chorus] 
(strummed with traditional fingerings)
Em                        C
by your side wherever you fall
       G                          D
in the dead of night whenever you call and
Em                      C                       G
Please don't fight these hands that are holding you.
D
My hands are holding you
                       G
e|----------------------------------------------------------|
B|-----------0------------------0------------------0--------|
G|----0---0----0----0----0---0----0----0----0---0----0------|
D|------12-------12--------12-------12--------12-------12---|
A|-10-----------------10-----------------10-----------------|
E|----------------------------------------------------------|

[Verse 3]
            Look  at these hands                     and my  side,
   G
e|----------------------------------------------------------------|
B|-----------0-----------------------0-------------------0--------|
G|----0----0---0------0-------0----0---0----0----0----0----0----0-|
D|------12--------12------------12-------12--------12--------12---|
A|-10----------------------10-----------------10------------------|
E|----------------------------------------------------------------|

                             they swal lowed the grave
                                                 Em
e|-----------------------------------------------------------------|
B|-----------0--------------------0------------------------0-------|
G|----0----0---0----0----0----0------0--------0-----0----0---0---0-|
D|------12-------12--------12------------12------------9-------9---|
A|-10-----------------10--------------------------7----------------|
E|-----------------------------------------------------------------|

       on that night                    when I drank the world's

e|----------------------------------------------------------------|
B|---------0------------------0------------------0----------------|
G|---0---0---0-----0----0---0---0---0---0-----0----0-------0------|
D|-----9--------9---------9-------9-------9------------9----------|
A|-7------------------7---------------7---------------------------|
E|----------------------------------------------------------------|

  sin               so I could carry you  in                     and give you
   D                                      C
e|----------------------------------------------------------------------------|
B|---------0--------------------0------------------0-----------------0--------|
G|---0---0---0---0---0----0--------0----0----0---0---0---0----0---0----0----0-|
D|-----7-------7-------7-------------7---------5-------5--------5---------5---|
A|-5---------------5-----------------------3----------------3-----------------|
E|----------------------------------------------------------------------------|

  life.                  I wanna give you life.                        And I'll be
  G
e|---------------------------------------------------------------------------------|
B|-----------0-------------------0-------------------0---------------0-------------|
G|----0----0---0----0----0----0----0-------0---0---0---0---0---0---0---0---------0-|
D|------12-------12--------12---------12---------7-------7-------7----------7------|
A|-10-----------------10---------------------5---------------5---------------------|
E|---------------------------------------------------------------------------------|

[Chorus] 
(strummed with traditional fingerings)
Em                        C
by your side wherever you fall
       G                          D
In the dead of night whenever you call and
Em                      C                       G
please don't fight these hands that are holdin you.
D
My hands are holdin...
Em                           C
Here in my side wherever you fall.
       G                          D
In the dead of night whenever you call and
Em                      C                      G
Please don't fight these hands that are holdin you.
D                   G              G
My hands are holdin you.

[Bridge]
G      D
'Cause I...
  Em           C           D        D
I love you. I want you to know that I...
   Em            C             D
I love you. I'll never let you go.
No...no. And I'll be

[Chorus]
Em                        C
by your side wherever you fall.
       G                          D
In the dead of night whenever you call and
Em                      C                      G
Please don't fight these hands that are holdin you.
D
My hands are holdin...
Em                           C
Here in my side wherever you fall.
       G                          D
In the dead of night whenever you call and
Em                      C                      G
Please don't fight these hands that are holdin you.
D                   Em
My hands are holdin you.

[Outro]
  Oh                  Here in my side     My hands are hold-in   you
  G                                       D                     Em
e|-------------------------------------------------------------------------------|
B|-----------0--------------------0---------------------0----------------0-------|
G|----0----0---0----0------0----0---0----0----0------0----0----0---0---0---0---0-|
D|------12-------12----------12-------12--------7------------7-------9-------9---|
A|-10-----------------10-------------------5---------------------7---------------|
E|-------------------------------------------------------------------------------|

   Oh
   C
e|-------------------|
B|---------0---------|
G|---0---0---0---0---|
D|-----5-------5-----|
A|-3-----------------|
E|-----------------3-|(let ring)
Suggest correction
comments
print report bad tab
3 comments total.
+3 reply
hurricaneherman 2,230 May 09, 2011 10:16 AM

This is definitely the most accurate out of the three versions for this song, but still is of on some of the notes.
I rated this four stars, but if you fix it up, it would be easy to boost that up to a five.

guest
You may want to rate the tab now too:
select rating
Wanna post a correction for this tab? Suggest correction