Oops, an error
Loading. Please wait.

Empty My Hands Tab

9,500 views 18 this week
1 commentread comment
1 2 3 4 5
excellent!
x 15
add to favorites
launch autoscroll
font size
0
reset
how to read this tab
guitar tuner
Tab Pro tools
  • play this tab
  • loop segment
  • change instrument
  • show fretboard
  • metronome
Autoscroll
slow
fast
+/-
esc
set tempo
stop
Difficulty
intermediate
-------------------------------------------------------------------------------
		    EMPTY MY HANDS - Tenth Avenue North
-------------------------------------------------------------------------------

Tabbed by: Ben Lind
Email: mail@benlind.com
YouTube Cover: http://www.youtube.com/watch?v=pfvqlPhBbxA&feature=mfu_in_order&list=UL

Capo 5

Intro:
e|----------------------------------------------------|
B|---8-----8-----3-----3-----5-----5-----5-----5------|
G|---------0-----------0-----------0-----------0------|
D|------0-----0-----0-----0-----0-----0-----0-----0---| x4
A|---7-----------2-----------3-----------3------------|
E|----------------------------------------------------|

Verse:
e|----------------------------------------------------|
B|---8-----8-----5-----5-----3-----3-----7-----7------|
G|---------0-----------0-----------0-----------0------|
D|------0-----0-----0-----0-----0-----0-----0-----0---| x4
A|---7-----------3-----------2-----------5------------|
E|----------------------------------------------------|

Pre-Chorus:
e|----------------------------------------------------|
B|---------0-----------0-----------0-----------0------|
G|---------2-----------0-----------0-----------0------|
D|------2-----0-----2-----0-----0-----0-----4-----0---| x4
A|---------------3-----------------------5------------|
E|---0-----------------------3------------------------|

Chorus:
e|----------------------------------------------------|
B|---------0-----------0-----------0-----------0------|
G|---------0-----------0-----------0-----------0------|
D|------5-----5-----5-----5-----5-----5-----5-----5---|
A|---------------------------3-----------3------------|
E|---3-----------3------------------------------------|

e|----------------------------------------------------|
B|---------0-----------0-----------0-----------0------|
G|---------0-----------0-----------0-----------0------|
D|------5-----5-----5-----5-----5-----5-----5-----5---|
A|---------------------------5-----------5------------|
E|---0-----------0------------------------------------|

Repeat Chorus, Intro 2x, Verse, Pre-Chorus, and Chorus 2x

Bridge (strum chords):
	         C2                                 G
	Cause my mind is like a building burning down
	  C2                          Em                   D
	I need Your grace to keep me, keep me from the ground
	       C2                            G
	And my heart is just a prisoner of war
	  C2                            Em                D
	A slave to what it wants and to what I'm fighting for

Repeat Chorus 2x, and Intro 8x

END
comments
print report bad tab
1 comment total.
0 reply
mojo75 wrote on March 23 2015, 08:38 pm

Awesome tab!

However, there is one note that I am wondering about (it's in the chorus in the second line)
I may be picky (no pun intended) ,or wrong, but how does this sound to you?
e|----------------------------------------------------|
B|---------0-----------0-----------0-----------0------|
G|---------0-----------0-----------0-----------0------|
D|------5-----5-----5-----5-----4-----4-----4-----4---|
A|---------------------------5-----------5------------|
E|---0-----------0------------------------------------|

I want to post or [tab]
guest
You may want to rate the tab now too:
select rating
Please do not post tabs as comments. Select "correction" instead!