Oops, an error
Loading. Please wait.

I Have This Hope Acoustic tab

154 views 6 this week
no commentswrite comment
1 2 3 4 5
x 3
add to favorites
×
Save as Personal and add changes to this tab that will be seen only by you. Learn more ›
×
You can save this tab as Personal to edit and correct it or add notes. All changes will be seen only by you. Learn more »
launch autoscroll
font size
0
reset
how to read this tab
guitar tuner
edit
Autoscroll
slow
fast
+/-
esc
set tempo
stop
[Intro]
     C                   C
e ---------------------------------------------|
B -----1----1----1----1----1----1----1----1----|
G ------0----0----0----0----0----0----0----0---|
D -------------3----2--------------3----2------|
A ---3----3--------------3----3----------------|
E ---------------------------------------------|

[Verse 1]

     C                   Am                  G         F        C
e -------------------------------------------------------------------------------------|
B -----1----1----1----1----1----1----1----1----1----1----1----1----1----1----1----1----|
G ------0----0----0----0----0----0----0----0----0----0----0----0----0----0----0----0---|
D -------------3----2--------------3----2----------------------------------3----2------|
A ---3----3--------------0----0----------------------------------3----3----------------|
E -------------------------------------------3----3----1----1--------------------------|

[Verse 2] 
same as verse 1

     C                   Am                  G         F        C
e -------------------------------------------------------------------------------------|
B -----1----1----1----1----1----1----1----1----1----1----1----1----1----1----1----1----|
G ------0----0----0----0----0----0----0----0----0----0----0----0----0----0----0----0---|
D -------------3----2--------------3----2----------------------------------3----2------|
A ---3----3--------------0----0----------------------------------3----3----------------|
E -------------------------------------------3----3----1----1--------------------------|

[Chorus] 
same as verse 1

     C                   Am                  G         F        C
e -------------------------------------------------------------------------------------|
B -----1----1----1----1----1----1----1----1----1----1----1----1----1----1----1----1----|
G ------0----0----0----0----0----0----0----0----0----0----0----0----0----0----0----0---|
D -------------3----2--------------3----2----------------------------------3----2------|
A ---3----3--------------0----0----------------------------------3----3----------------|
E -------------------------------------------3----3----1----1--------------------------|

[Verse 3] 
same as verse 1

     C                   Am                  G         F        C
e -------------------------------------------------------------------------------------|
B -----1----1----1----1----1----1----1----1----1----1----1----1----1----1----1----1----|
G ------0----0----0----0----0----0----0----0----0----0----0----0----0----0----0----0---|
D -------------3----2--------------3----2----------------------------------3----2------|
A ---3----3--------------0----0----------------------------------3----3----------------|
E -------------------------------------------3----3----1----1--------------------------|

[Chorus] x2 
same as verse 1

     C                   Am                  G         F        C
e -------------------------------------------------------------------------------------|
B -----1----1----1----1----1----1----1----1----1----1----1----1----1----1----1----1----|
G ------0----0----0----0----0----0----0----0----0----0----0----0----0----0----0----0---|  x2
D -------------3----2--------------3----2----------------------------------3----2------|
A ---3----3--------------0----0----------------------------------3----3----------------|
E -------------------------------------------3----3----1----1--------------------------|

[Bridge]

   Am                       F           G
So, Whatever happens I will not be afraid
Am                              F               G
 Cause you are closer than this breath that I take
Am                                   F         G
you calm the storms when I hear you call my name
Am                            F                G
 I still believe that one day I'll see your face

[Chorus]

     C                   Am                  G          F
e ------------------------------------------------------x---|
B -----1----1----1----1----1----1----1----1----1----1---1---|
G ------0----0----0----0----0----0----0----0----0----0--0---|
D -------------3----2--------------3----2---------------x---|
A ---3----3--------------0----0-------------------------x---|
E -------------------------------------------3----3-----1---|

[Chorus] 
same as verse 1

     C                   Am                  G         F        C
e -------------------------------------------------------------------------------------|
B -----1----1----1----1----1----1----1----1----1----1----1----1----1----1----1----1----|
G ------0----0----0----0----0----0----0----0----0----0----0----0----0----0----0----0---|
D -------------3----2--------------3----2----------------------------------3----2------|
A ---3----3--------------0----0----------------------------------3----3----------------|
E -------------------------------------------3----3----1----1--------------------------|

[Outro] 
     G         F        C                    G          F       C
e ------------------------------------------------------x-------0---|
B -----1----1----1----1----1----1----1----1----1----1---1-------1---|
G ------0----0----0----0----0----0----0----0----0----0--0-------0---|
D ---------------------------------3----2---------------x-------2---|
A -----------------------3----3-------------------------x-------3---|
E ---3----3----1----1------------------------3----3-----1-------x---|

| x   Dead note



************************************

 ad note
  

************************************

            
            
Suggest correction
Creating personal tab
Creating personal tab
You can edit any tab online and save it as your Personal.

You can edit, replace or remove any tab part or add personal notes – all changes will be seen only by you.

Personal tabs can be accessed anytime from any device, even offline.
Learn more »
Give kudos to tab author, rate the tab!
1 2 3 4 5
comments
print report bad tab
guest
You may want to rate the tab now too:
select rating
Wanna post a correction for this tab? Suggest correction