Oops, an error
Loading. Please wait.

Love Is Here Chords

version 2
version 2

Whole song

48,237 views 3 this week
3 commentsread comments
1 2 3 4 5
accurate
x 6
add to favorites
launch autoscroll
font size
0
reset
transpose
0
reset
simplify chords
display chords
guitar tuner
Autoscroll
slow
fast
+/-
esc
set tempo
stop
Help us to improve Ultimate-Guitar.com Take our survey!
×
Author
Difficulty
The tab is pretty much the same throughout the song...I tabbed what i could hear, and it
pretty well, but it might be slightly more complex

Also, the tuning is Eb since its the easiest tuning to play the tab...But the chords are
in standard. So the chords are technically all a half step down by note, but they are
here as if you were playing them in standard...Tune your guitar to Eb and play the 
will understand what I mean...

I also have to give credit to tsm_91...I used his post as a template since I didnt want
rewrite the whole thing. His chords are pretty much perfect except that they are not in
same key as the original soundtrack. You can use his tab if your voice isn't high enough 
you want to sing it lower...

Tuning: Eb-Ab-Db-Gb-Bb-Eb = D#-G#-C#-F#-A#-D#

Tab (Repeats throughout song):

eb |   ----------0---0----   |
Bb |O  ------8-----8---8--  O|
Gb |   ----5---5----------   |
Db |   --7----------------   |
Ab |O  -------------------  O|
Eb |   -------------------   |

Chords:


Intro:

Am, G, F

Verse 1:

Am          G      F
Come to the Water, you who thirst
             Am       G   F
And you'll thirst no more.
Am          G       F
Come to the Father, you who work
            Am      G   F
And you'll work no more.

Pre-Chorus:

G               Am       F
And all you who labor in vain
G           Am         F
And to the broken and shamed:

Chorus 1:

         C             F
Love is here. love is now.
          Am             G               F
Love is pouring from his hands, from his brow.
          C          G
Love is near, it satisfies.
Am                G                F
Streams of mercy flowing from his side.
              Am   G  F
Cause love is here.

(intro once)

Verse 2:

F#m         E         D2
Come to the treasure, you who search
             F#m        E  D2
And you'll search no more.
F#m           E    D2
Come to the lover you who want
           F#m        E  D2
And you'll want no more, no.

(Pre-Chorus)

Chorus 2:

         C             F
Love is here. love is now.
          Am             G               F
Love is pouring from his hands, from his brow.
          C          G
Love is near, it satisfies.
Am                G                F
Streams of mercy flowing from his side.

Bridge:

F
and to the bruised and fallen,
C
captive, bound, and broken hearted.
Am
He is the Lord
G
He is the lord,yeah
F
By his stripes he's paid all ransom
C
From his wounds we drink salvation
Am
He is the Lord
G
He is the Lord

Out Chorus:

         C             F
Love is here. love is now.
          Am             G               F
Love is pouring from his hands, from his brow.
          C          G
Love is near, it satisfies.
Am                G                F
Streams of mercy flowing from his side.
Am                G                F
Streams of mercy flowing from his side.
              Am   G  F
Cause love is here.
           Am  G  F
Love is here.
Suggest correction
comments
print report bad tab
3 comments total.
+3 reply
chrjs 36 wrote on September 4 2008, 04:19 pm

here are the correct tabs for the this song..
it includes the proper tuning =}


eb|----------0----------------0----------------0----------------0--------
Bb|------8-----8---8------8-----8---8------8-----8---8------8-----8---8--
Gb|----5---5-----5------5---5-----5------5---5-----5------5---5-----5----
Db|--7-------------------------------------------------------------------
Ab|-------------------7----------------8----------------8----------------
Eb|----------------------------------------------------------------------

0 reply
chrjs 36 wrote on September 4 2008, 04:19 pm

here are the correct tabs for the this song..
it includes the proper tuning =}


eb|----------0----------------0----------------0----------------0--------
Bb|------8-----8---8------8-----8---8------8-----8---8------8-----8---8--
Gb|----5---5-----5------5---5-----5------5---5-----5------5---5-----5----
Db|--7-------------------------------------------------------------------
Ab|-------------------7----------------8----------------8----------------
Eb|----------------------------------------------------------------------

0 reply
kristinarowe2 10 wrote on January 20 2014, 07:53 am

well at least this website is good because i went on another thing and it had guitar chords and instructions of how to build things for like a band or something and it didn't help at all

guest
You may want to rate the tab now too:
select rating
Please do not post tabs as comments. Select "correction" instead!