Oops, an error
Loading. Please wait.

Times Tab

version 1
version 1

Whole song

96,668 views 27 this week
6 commentsread comments
1 2 3 4 5
x 43
add to favorites
launch autoscroll
font size
0
reset
how to read this tab
guitar tuner
Autoscroll
slow
fast
+/-
esc
set tempo
stop
Help us to improve Ultimate-Guitar.com Take our survey!
×
Author
Difficulty
novice
Tenth Avenue North
Times
key E


[Part 1]

 (intro, early verses when person speaks)
e|---------------------------------|---------------------------------|
B|---------------------------------|---------------------------------|
G|-----4-------4-------4-------4---|-----4-------4-------4-------4---|
D|---2---2---2---2---2---2---4---4-|---2---2---2---2---2---2---4---4-|
A|-4-------0---------------2-------|-4-------0---------------2-------|
E|-----------------0---------------|-----------------0---------------|


[Part 2]

 (oh, oh's)
e|---------------------------------|---------------------------------|
B|---------------------------------|---------------------------------|
G|-----4---4-----------4---4-------|-----4---4-----------4---4-------|
D|---2---2---2---2---2---2---2---2-|---2---2---4---4---2---2---2---2-|
A|-4-----------4-------------------|-0-----------0---0-----------0---|
E|-----------------0-----------0---|---------------------------------|


[Part 3] 

 (later verses when God speaks)
e|---------------------------------|---------------------------------|
B|---------------------------------|---------------------------------|
G|-----4---4-----------4---4-------|-----4---4-----------4---4-------|
D|---2---2---2---2---2---2---2---2-|---4---4---4---4---2---2---2---2-|
A|-0-----------0-------------------|-2-----------2---4-----------4---|
E|-----------------0-----------0---|---------------------------------|


[Intro]

(part 1)


[Verse 1]
(part 1) (x4)

I know I need You
I need to love You
I love to see You, but it's been so long
I long to feel You
I feel this need for You
And I need to hear You, is that so wrong?


[Interlude]
(part 2) (x2)

Oh, oh. Oh, oh. Oh, oh.
Oh, oh. Oh, oh. Oh, oh.


[Verse 2]
(part 1) (x4)

Now You pull me near You
When we're close, I fear You
Still I'm afraid to tell You, all that I've done
Are You done forgiving?
Oh can You look past my pretending?
Lord, I'm so tired of defending, what I've become
What have I become?


[Interlude]
(part 2) (x4)

Oh, oh. Oh, oh. Oh, oh.
Oh, oh. Oh, oh. Oh, oh.
Oh, oh. Oh, oh. Oh, oh.
Oh, oh. Oh, oh. Oh, oh.


[Verse 3]
(part 3) (x8) + 3/4   
(the last time move into part 2  3/4 through progression. will sound right.)

I hear You say,
"My love is over. It's underneath.
It's inside. It's in between.
The times you doubt Me, when you can't feel.
The times that you question, 'Is this for real? '
The times you're broken.
The times that you mend.
The times that you hate Me, and the times that you bend.
Well, My love is over, it's underneath.
It's inside, it's in between.
These times you're healing, and when your heart breaks.
The times that you feel like you're falling from grace.
The times you're hurting.
The times that you heal.
The times you go hungry, and are tempted to steal.
The times of confusion, in chaos and pain.
I'm there in your sorrow, under the weight of your shame.
I'm there through your heartache.
I'm there in the storm.
My love I will keep you, by My pow'r alone.
I don't care where you fallen , where you have been.
I'll never forsake you, My love never ends.
It never ends."


[Outro]
(part 2) (x2)

Oh, oh. Oh, oh. Oh, oh.
Oh, oh. Oh, oh. Oh, oh.

(end with G#m 006640)
Suggest correction
comments
print report bad tab
6 comments total. Showing first comments.
0 reply
tonydo91 46 Jan 04, 2009 07:19 PM

Great tab.
Keep it up.
I believe C# sounds better like:

E x

0 reply
tonydo91 46 Jan 04, 2009 07:20 PM

err, didnt come out right...

E x

0 reply
pinktux7 254 Jan 24, 2009 06:15 PM

Thanks Tony, the ending chord should be:

EBGDAe
006640

guest
You may want to rate the tab now too:
select rating
Wanna post a correction for this tab? Suggest correction