Oops, an error
Loading. Please wait.

You Are More Tab

version 1
version 1

Whole song

  • More of the Lead Guitar part rather than rhythm, b... Show more

Video

13 views 3 this week
no commentswrite comment
1 2 3 4 5
2 more votes to show rating
add to favorites
launch autoscroll
font size
0
reset
how to read this tab
guitar tuner
Autoscroll
slow
fast
+/-
esc
set tempo
stop
Help us to improve Ultimate-Guitar.com Take our survey!
×
Author
Difficulty
About this tab version
More of the Lead Guitar part rather than rhythm, but would be willing to do or add a rhythm as well if anyone wants me to. Was this info helpful? Yes No
Lead guitar

[Intro/Verse]

e|---------------------------------------------------------------------------|
B|---------------------------------------------------------------------------|
G|------0--x----0--------0--x----0----------------16--x-----16-----11~-------|
D|---------------------------------------------------------------------------| X 6
A|---7-------7--------3-------3---------------14--------14---------9~--------|
E|---------------------------------------------------------------------------|


[Pre-Chorus]

e|-------------7-7-7-7-------------------------------------------------------|
B|-10-10-10-10-----------------7-7-7-7-8~------------5~----------------------|
G|---------------------7-7-7-7---------------------7---------7~--------------|
D|-----------------------------------------------5---------------------------|
A|---------------------------------------------------------------------------|
E|---------------------------------------------------------------------------|
X|--X--X--X--X---------------------------------------------------------------|

[Chorus 1]

e|------------------------7-----7-----7---7-----7-----7----------------------|
B|-----8-----8-----8--------8-----8---------8-----8-------7---7---7-8-8------|
G|-------7-----7--------7-----7-----7---7-----7-----7-----7---7---7-7-7------|
D|---5-----5-----5----------------------------------------5---5---5-5-5------| X 2
A|---------------------------------------------------------------------------|
E|---------------------------------------------------------------------------|


[Verse 2]

e|---------------------------------------------------------------------------|
B|---------------------------------------------------------------------------|
G|------0--x----0--------0--x----0----------------16--x-----16-----11~-------|
D|---------------------------------------------------------------------------| X 4
A|---7-------7--------3-------3---------------14--------14---------9~--------|
E|---------------------------------------------------------------------------|

[Pre-Chorus] (I don't hear it as clearly here)

e|-------------7-7-7-7-------------------------------------------------------|
B|-10-10-10-10-----------------7-7-7-7-8~------------5~----------------------|
G|---------------------7-7-7-7---------------------7---------7~--------------|
D|-----------------------------------------------5---------------------------|
A|---------------------------------------------------------------------------|
E|---------------------------------------------------------------------------|
X|--X--X--X--X---------------------------------------------------------------|

[Chorus 2]

e|------------------------7-----7-----7---7-----7-----7----------------------|
B|-----8-----8-----8--------8-----8---------8-----8-------7---7---7-8-8------|
G|-------7-----7--------7-----7-----7---7-----7-----7-----7---7---7-7-7------|
D|---5-----5-----5----------------------------------------5---5---5-5-5------| X 4
A|---------------------------------------------------------------------------|
E|---------------------------------------------------------------------------|

[Bridge]
   C         D         E         G
e|---------------------------------------------------------------------------|
B|-5---------7---------9---------12------------------------------------------|
G|-5---------7---------9---------12------------------------------------------|
D|-5--X 16---7--X 16---9--X 16---12--X16-------------------------------------| X 2
A|-3---------5---------7---------10------------------------------------------|
E|---------------------------------------------------------------------------|

e|---------------------------------------------------------------------------|
B|---------------------------------------------------------------------------|
G|--12~~~~~~~~~~~~-----------------------------------------------------------|
D|---------------------------------------------------------------------------| 
A|---------------------------------------------------------------------------|
E|---------------------------------------------------------------------------|


[Chorus 3]
Piano part
Em C G D Em C G

e|------------------------7-----7-----7---7-----7-----7----------------------|
B|-----8-----8-----8--------8-----8---------8-----8-------7---7---7-8-8------|
G|-------7-----7--------7-----7-----7---7-----7-----7-----7---7---7-7-7------|
D|---5-----5-----5----------------------------------------5---5---5-5-5------| X 2
A|---------------------------------------------------------------------------|
E|---------------------------------------------------------------------------|

[Outro]

e|---------------------------------------------------------------------------|
B|---------------------------------------------------------------------------|
G|------0--x----0--------0--x----0----------------16--x-----16-----11~-------|
D|---------------------------------------------------------------------------| X 2
A|---7-------7--------3-------3---------------14--------14---------9~--------|
E|---------------------------------------------------------------------------|


************************************

| x   Dead note
| ~   Vibrato

************************************
Suggest correction
Give kudos to tab author, rate the tab!
1 2 3 4 5
comments
print report bad tab
guest
You may want to rate the tab now too:
select rating
Wanna post a correction for this tab? Suggest correction