Oops, an error
Loading. Please wait.

Me And My Guitar chords

by Tep No
2,056 views 15 this week
no commentswrite comment
1 2 3 4 5
1 last vote to show rating
add to favorites
×
Save as Personal and add changes to this tab that will be seen only by you. Learn more ›
×
You can save this tab as Personal to edit and correct it or add notes. All changes will be seen only by you. Learn more »
launch autoscroll
font size
0
reset
transpose
0
reset
display chords
guitar tuner
edit
Autoscroll
slow
fast
+/-
esc
set tempo
stop
Strumming
There is no strumming pattern for this song yet. and get +5 IQ
Me and my guitar by Tep No

email: kk.espada@gmail.com

Capo 7 

[Verse 1]

Am             Em           F        F
Oh baby I won’t, forget now
Am                  Em                     F         Dm
How you stomp your feet up off the ground
Am          Em                 F         F
Well your smile came to me somehow
Am                         Em   
Then everything faded away    
     F                                  Dm
And all this time I thought it would be


[Chorus]

                  Am     Em           
Just me and my guitar
              F       F
Blowing up hearts
                Dm                      G  F         Dm
Dancing in the darkness. Waiting for a spark to come in. Come in
 
                  Am   Em   F   F
Just me and my guitar

Am Em F Dm

                  Am  Em  F  F
Just me and my guitar

Am Em F Dm


[Verse 2]

Am         Em               F       F
I was alone when you came around
Am             G         Em         F      Dm
Now you stomp your feet up off the ground
Am         Em                  F             F
We had so much of life being faded away, faded away
Am       G                  F 
And I thought I could lean on


[Chorus]

                  Am     Em           
Just me and my guitar
              F       F
Blowing up hearts
                Am                            Em         F            Dm
Dancing in the dark, just waiting for a spark to come in. Come in
                   Am    Em              
Just me and my guitar
                F    F
Dancing by the bar
              Am                    G              F  
Trying to find, Trying to find love, and no money, no
Dm
  Just trying to find

Am Em F F


[Verse 3]

Am     Em                F    F
Oh baby I won't, forget now
Am                  Em               F       Dm
How you stomp your feet up off the ground
Am        Em                F      F
Your smile came to me, somehow
Dm                        Em  
Then everything faded away
     F                                Dm
And all this time, I thought it would be


[Chorus]

                  Am     Em           
Just me and my guitar
              F       F
Blowing up hearts
                Am                       Em           F           Dm
Dancing in the dark, just waiting for a spark to come in. Come in
                   Am    Em              
Just me and my guitar
                F    F
Dancing by the bar
              Am                 G                  F        Dm
Trying to find, Trying to find love, and no money, no. 
                    Am     Em     F     F
Just trying to find

Am Em F Dm

End.

Picking pattern: (relatively to capo)

       Am:
e|-------------------------------------|
B|--------1----------1-----------------|
G|-------------------------------------|
D|-----2---------2-----------2---------|
A|--0---------0-----------0------------|
E|-------------------------------------|

       Em:
e|-------------------------------------|
B|-------------------------------------|
G|-------0-----------0-----------------|
D|--2----------2-----------2-----------|
A|-----2----------2------------2-------|
E|-------------------------------------|
        F:
e|-------------------------------------|
B|-------------------------------------|
G|--------2-----------2----------------|
D|--3-----------3------------3---------|
A|-----3------------3------------3-----|
E|-------------------------------------|
       Dm:
e|-------------------------------------|
B|-------------------------------------|
G|-------------------------------------|
D|--0-----2----0-----2----0------------|
A|-----0----------0----------0---------|
E|-------------------------------------|
        G:
e|-------------------------------------|
B|---------0---------------------------|
G|--------------------0----------------|
D|--0------------0-----------0---------|
A|------2-----------2-----------2------|
E|-------------------------------------|

No Capo version use Em Bm C D Am (Em played at 7th fret).
play whichever version you think is easier.

tutorial vid: https://www.youtube.com/watch?v=lkmPG0yy-kU&list=LLgXN0VOJ7UnZbz55IK-hjVg&index=8

Note: vid not mine.
Suggest correction
Creating personal tab
Creating personal tab
You can edit any tab online and save it as your Personal.

You can edit, replace or remove any tab part or add personal notes – all changes will be seen only by you.

Personal tabs can be accessed anytime from any device, even offline.
Learn more »
Give kudos to tab author, rate the tab!
1 2 3 4 5
comments
print report bad tab
guest
You may want to rate the tab now too:
select rating
Wanna post a correction for this tab? Suggest correction