Oops, an error
Loading. Please wait.

Dime Que Me Quieres Tab

by Tequila
248 views 1 this week
no commentswrite comment
1 2 3 4 5
3 more votes to show rating
add to favorites
launch autoscroll
font size
0
reset
how to read this tab
guitar tuner
×
Best way to learn
"Dime Que Me Quieres"
Autoscroll
slow
fast
+/-
esc
set tempo
stop
INTRO 
e||---------|-------------------|---------|-------------------------|
B||-------5-|---------7---------|-------5-|----------------10p9-----|
G||-----7---|-------9--------11-|-----7---|-------9-------------11--|
D||---7-----|-----9-------11----|---7-----|-----9---9---11----------|
A||-5-------|-5-7-------9-------|-5-------|-5-7-------9-------------|
E||---------|-------------------|---------|-------------------------|

e||---------|-------------------|----\--------|-----------|---------|
B||-------5-|-------------------|----/--------|-----------|---------|
G||-----7---|-------9--------11-|-7--\----7---|-7---------|-11------|
D||---7-----|-----9---9---11----|-7--/--7---7-|-7---------|-11------|
A||-5-------|-5-7-------9-------|-5--\--------|-5-0-5-7-9-|---------|
E||---------|-------------------|----/--------|-----------|---------|
                                      MUTE
e||-------------------------|--------|------------------------------|
B||-10-9h10p9---------------|--------|-------------------------9----|
G||-----------11\9------9-9-|--------|---------------9-11----9-11---|
D||----------------9/11-----|-11p9---|----------9-11------11--------|
A||-------------------------|------9-|-/9 11-12---------------------|
E||-------------------------|--------|------------------------------|
                                                          INTRO ENDS
e||-10-9-10----------------------|---------------|------------------|
B||------12-10-12-14-15-14-12-10-|---------------|------------------|
G||------------------------------|-/11-9---------|------------------|
D||------------------------------|-------12p11p9-|----9-11-12-11----|
A||------------------------------|---------------|-12------------12-|
E||------------------------------|---------------|------------------|
Suggest correction
Give kudos to tab author, rate the tab!
1 2 3 4 5
comments
print report bad tab
guest
You may want to rate the tab now too:
select rating
Wanna post a correction for this tab? Suggest correction