Oops, an error
Loading. Please wait.

Rock'n Roll En La Plaza Del Pueblo Bass Tab

267 views 1 this week
no commentswrite comment
1 2 3 4 5
3 more votes to show rating
add to favorites
launch autoscroll
font size
0
reset
guitar tuner
×
Best way to learn
"Rock'n Roll En La Plaza Del Pueblo"
Autoscroll
slow
fast
+/-
esc
set tempo
stop
Se entra a los 8 segundos
G|------------------------------------------------------------------
D|------------------------------------------------------------------
A|--33?33?33------------55-55-55-?33?33?33-----2-3-4-5-3-4-5--------
E|-----------33-33?33?-----------------------3----------------------


Vamos?plaza del pueblo/Vamos?y nadie nos va parar/La gente?.
G|-------------------------------------------------------------
D|-------------------------------------------------------------
A|-------------0-1-2-33-33-33/--------------55?55-55?33?33?33--
E|--33?33?33?/-----------------33-33-33--/---------------------

-----------------
----------------- x3
---2-3-4-5-3-4-5?
3----------------

Piano y guitarra
G|----------------------------------------------------------
D|----------------------------------------------------------
A|---------1-2-33-33--------0-1-2-33-33---------55-55-33-33-
E|---33-33-----------33-33---------------33-33--------------

-----------------
-----------------
---2-3-4-5-3-4-5?
3----------------

Un poco mas de rollo
G|-----------------------------------------------------------
D|----------------2-0-2---2-0-2----------2-0-2---2-0-2-------
A|----------33------------------33--33-----------------55?33-
E|-----33-------3-------3--------------3-------3-------------

-----------------
-----------------
---2-3-4-5-3-4-5?
3----------------

El Rock esta en mi cuerpo
G|----------------------------------------------------------------
D|----------------2-0-2---2-0-2------------2-0-2---2-0-2----------
A|----------33------------------33-12-33-----------------55?54-33-
E|-----33-------3-------3----------------3-------3----------------

-----------------
-----------------
---2-3-4-5-3-4-5?
3----------------


Solo y vamos? hasta final
G|------------------------------------------------------------
D|------------------------------------------------------------
A|-------------0-1-2-33-33-33/--------------55?55-55?33?33?33-
E|--33?33?33?/-----------------33-33-33--/--------------------

-----------------
-----------------
---2-3-4-5-3-4-5?
3----------------


NOTA: Los grupos de notas escritos no se corresponden con los reales,
los he puesto asi para que me quepa toda la estrofa en una linea,
compruebalo con el original veras que es facil.
Suggest correction
Give kudos to tab author, rate the tab!
1 2 3 4 5
comments
print report bad tab
guest
You may want to rate the tab now too:
select rating
Wanna post a correction for this tab? Suggest correction