Oops, an error
Loading. Please wait.

Melody 4 tab

version 1
version 1

Whole song

Interactive

508 views 6 this week
no commentswrite comment
1 2 3 4 5
1 last vote to show rating
add to favorites
×
Save as Personal and add changes to this tab that will be seen only by you. Learn more ›
×
You can save this tab as Personal to edit and correct it or add notes. All changes will be seen only by you. Learn more »
launch autoscroll
font size
0
reset
how to read this tab
guitar tuner
edit
Autoscroll
slow
fast
+/-
esc
set tempo
stop
Author
Difficulty
Riff 1:

|---------------------------------------------------------------|
|---------------------------------------------------------------|
|----4p0-7/9p0-4p0-----0h4-0-7p0-----2p0-2/4p0-2p0-----3h4p0-3p0|  x3
|--5---------------1h2-------------5-----------------5----------|
|7-------------------------------3-----------------2------------|
|---------------------------------------------------------------|


|---------------------------------------------------------------|
|--------------------------------------------7-7----9-9---------|
|----4p0-7/9p0-4p0-----0h2h4p0-7h9p0-7----------------------------|
|--5---------------1h2-----------------5-----7-7----9-9---------|
|7--------------------------------------------------------------|
|---------------------------------------------------------------|



Riff 2:

|---------------------------------------------------------------|
|---------------------------------------------------------------|
|----7p0-2/4p0-----3p0-3h4p0-3p0-----2/4-7p4p0-----0h2p0-2/4\2--|
|--5-------------5-----------------5-------------5-------------5|
|3-------------2-----------------0-----------------------------3|
|----------------------------------------------3---------------3|

|---------------------------------------------------|
|---------------------------------------------------|
|--7p0-2/4p0-----3p0-3h4p0-3p0-----2/4h7p4p0--------|
|--------------5-----------------5-----------5-5-55-|
|------------2-----------------0-------------5-5-55-|
|--------------------------------------------3-3-33-|


|---------------------------------------------------------------|
|---------------------------------------------------------------|
|----7p0-2/4p0-----3p0-3h4p0-3p0-----2/4-7p4p0-----0h2p0-2/4\2p0|
|--5-------------5-----------------5-------------5--------------|
|3-------------2-----------------0------------------------------|
|----------------------------------------------3----------------|


|-----------------------------------------------------|
|-----------------------------------------------------|
|----7p0-2/4p0-----3p0-3h4p0-3p0-----2/4h7p4p0--------|
|--5-------------5-----------------5-----------5-5-55-|
|3-------------2-----------------0-------------5-5-55-|
|----------------------------------------------3-3-33-|


Pre-Chorus Riff:

|3--3-33X3--3-33------------------------------|--3-33X3--3-33-------------------------------|
|3--3-33X3--3-33------------------------------|--3-33X3--3-33-------------------------------|
|0--0-00X0--0-00-----2/4h7p4p0-----2/4h7p4p0--|--0-00X0--0-00-----2/4h7p4p0-----2/4h7p4p0---|
|2--2-22X2--2-22---5-------------5------------|--2-22X2--2-22---5-------------5-------------|
|3--3-33X3--3-33-5-------------5-------------3|--3-33X3--3-33-5-------------5---------------|
|---------------------------------------------|---------------------------------------------|

                                            |--let ring--| 
|3-3-33X-3-3-33X-|3-33--33--|3-3-33X3--3-33-0|-----------0-----------------------|
|3-3-33X-3-3-33X-|3-33--33--|3-3-33X3--3-33-7|-----------5-----------------------|
|0-0-00X-0-0-00X-|0-00--00--|0-0-00X0--0-00-7|-----------7-----------------------|
|2-2-22X-2-2-22X-|2-22--22--|2-2-22X2--2-22-5|-----------5---------------------/9|
|3-3-33X33-3-33X3|3-33-333-3|3-3-33X3--3-33--|-----------------------------------|
|----------------|----------|----------------|-----------------------------------|


Chorus:

                                         parentheses are just for formatting, play them as normal

|----------------|----------------|---------------------------|---------------------------|----------------|
|----------------|----------------|88-88-(12)(12)-(12)(12)-12-|88-88-(12)(12)-(12)(12)-12-|----------------|
|--7-------7-----|--7-------7-----|77-77-(12)(12)-(12)(12)-12-|77-77-(12)(12)-(12)(12)-12-|--7-------7-----|
|9---9-7-9---9-79|----9-7-9---9-7-|77-77-(10)(10)-(10)(10)-10-|77-77-(10)(10)-(10)(10)-10-|9---9-7-9---9-79|
|----------------|----------------|77-77-(10)(10)-(10)(10)-10-|77-77-(10)(10)-(10)(10)-10-|----------------|
|----------------|----------------|---------------------------|---------------------------|----------------|


|----------------||-------5------5------7-7-77|
|----------------||8------8------8------8-8-88|
|--7-------7-----||7------7------7------7-7-77|
|----9-7-9---9-7-||5------5------5------5-5-55|
|----------------||--00-0----------00-0-------|
|----------------||---------00-0--------------|



Soft Part:



|---7--------0-----------------|---7--------0-----------------|---7--------0--------------------3-|
|-----8---------------------3h5|-----8---------------------3h5|-----8---------------------3h5h6---|
|-------0---------7-0h2h4h5----|-------0---------7-0h2h4h5----|-------0---------7-0h2h4h5---------|
|10------------10--------------|10------------10--------------|10------------10-------------------|
|---------10-------------------|---------10-------------------|---------10------------------------|
|------------------------------|------------------------------|-----------------------------------|


|---7--------0---------7----------------|---7--------0---------7-------------------3-|
|-----8------------------8-----------3h5|-----8------------------8-----------3h5h6---|
|-------0---------7--------0-0h2h4h5----|-------0---------7--------0-0h2h4h5---------|
|10------------10---10------------------|10------------10---10-----------------------|
|---------10----------------------------|---------10---------------------------------|
|---------------------------------------|--------------------------------------------|


|---7--------0-----|----------------------------------|
|-----8------------|9p5p0-5h6p0-7p0-----10-----13-----|
|-------0---------7|----------------5p0----8p0----11p0|
|10------------10--|----------------------------------|
|---------10-------|----------------------------------|
|------------------|----------------------------------|


|---7---------7----7-7-----7-------|
|--------------------------8-------|
|--------0-----------------0-------|
|10---10---10---10--------10-------|
|----------------------------------|
|----------------------------------|


Shred Part:

|----------------------------|----------------------------------|
|11-11-11-1111-11-11-11-1111-|7p5p0-5h6p0-7p0-----10-----13-----|
|9--9--9--9-9--9--9--9--9-9--|----------------5p0----8p0----11p0|
|8--8--8--8-8--8--8--8--8-8--|----------------------------------|
|----------------------------|----------------------------------|
|----------------------------|----------------------------------|


|------------------------|----------------------------------|
|111111-11-1111--11---11-|7p5p0-5h6p0-7p0-----10-----13-----|
|9-9-9--9--9-9---9----9--|----------------5p0----8p0----11p0|
|8-8-8--8--8-8---8----8--|----------------------------------|
|------------------------|----------------------------------|
|------------------------|----------------------------------|


|--------------------------------------------------|
|1111-11-111111-11-1111-1111-1111--11--11--11--11--|
|9-9--9--9-9-9--9--9-9--9-9--9-9---9---9---9---9---|
|8-8--8--8-8-8--8--8-8--8-8--8-8---8---8---8---8---|
|--------------------------------------------------|
|--------------------------------------------------|



|------5---------------------------|------5-------------------------------------|
|7p5p0---6p0-7p0-----10-----13-----|7p5p0---6p0-7p0-----10-----13------14-------|
|----------------5p0----8p0----11p0|----------------5p0----8p0----11p0-12-------|
|----------------------------------|--------------------------------------------|
|----------------------------------|--------------------------------------------|
|----------------------------------|--------------------------------------------|


|----------------------------|
|11-11-11-1111-11-11-11-1111-|
|9--9--9--9-9--9--9--9--9-9--|
|8--8--8--8-8--8--8--8--8-8--|
|----------------------------|
|----------------------------|


|---------------------------------------------|
|---------------------------------------------|
|----4p0-7/9p0-----3---6/8-------5---8/10-5---|  x2
|--5-------------4---4-----4---6---6--------6-|
|7-------------6-------------8----------------|
|---------------------------------------------|


Riff 2 Again:

|---------------------------------------------------------------|
|---------------------------------------------------------------|
|----7p0-2/4p0-----3p0-3h4p0-3p0-----2/4-7p4p0-----0h2p0-2/4\2p0|
|--5-------------5-----------------5-------------5--------------|
|3-------------2-----------------0------------------------------|
|----------------------------------------------3----------------|

|-----------------------------------------------------|
|-----------------------------------------------------|
|----7p0-2/4p0-----3p0-3h4p0-3p0-----2/4h7p4p0--------|  x2
|--5-------------5-----------------5-----------5-5-55-|
|3-------------2-----------------0-------------5-5-55-|
|----------------------------------------------3-3-33-|

Intro Riff Again:

|---------------------------------------------------------------|
|---------------------------------------------------------------|
|----4p0-7/9p0-4p0-----0h4-0-7p0-----2p0-2/4p0-2p0-----3h4p0-3p0|  x2
|--5---------------1h2-------------5-----------------5----------|
|7-------------------------------3-----------------2------------|
|---------------------------------------------------------------|



|----------------------------0----------------------------------|
|--------------------------0------------------------------------|
|7--------7---------5-------------------------------------------| let notes ring out
|5--------5-----------------------------------------------------|
|3--------5-----------------------------------------------------|
|-----------------5------5--------------------------------------|


Interlude:

|--------------|                           |------------|
|--------------|                           |------------|
|--------6-----|                           |--------6---|
|--9---6---8---|  repeat a lot, end with   |--9---6---8-|
|6---7-------9-|                           |6---7-------|
|--------------|                           |------------|



Chorus Again:

|----------------|----------------|---------------------------|---------------------------|----------------|
|----------------|----------------|88-88-(12)(12)-(12)(12)-12-|88-88-(12)(12)-(12)(12)-12-|----------------|
|--7-------7-----|--7-------7-----|77-77-(12)(12)-(12)(12)-12-|77-77-(12)(12)-(12)(12)-12-|--7-------7-----|
|9---9-7-9---9-79|----9-7-9---9-7-|77-77-(10)(10)-(10)(10)-10-|77-77-(10)(10)-(10)(10)-10-|9---9-7-9---9-79|
|----------------|----------------|77-77-(10)(10)-(10)(10)-10-|77-77-(10)(10)-(10)(10)-10-|----------------|
|----------------|----------------|---------------------------|---------------------------|----------------|

|----------------|
|----------------|
|--7-------7-----|
|----9-7-9---9-7-|
|----------------|
|----------------|


Outro: 


|-------5------5------7------|
|8------8------8------8------|
|7------7------7------7------|  play some variation of those three chords, but always alternate the 
|5------5------5------5------|  bottom strings. Repeat until the end
|--00-0----------00-0--------|
|---------00-0----------00-0-|


I hope this tab helps! If you think anything is wrong, let me know.








            
            
Suggest correction
Creating personal tab
Creating personal tab
You can edit any tab online and save it as your Personal.

You can edit, replace or remove any tab part or add personal notes – all changes will be seen only by you.

Personal tabs can be accessed anytime from any device, even offline.
Learn more »
Give kudos to tab author, rate the tab!
1 2 3 4 5
comments
print report bad tab
guest
You may want to rate the tab now too:
select rating
Wanna post a correction for this tab? Suggest correction