Oops, an error
Loading. Please wait.

El Uno Para El Otro Tab

317 views 3 this week
no commentswrite comment
1 2 3 4 5
2 more votes to show rating
add to favorites
launch autoscroll
font size
0
reset
how to read this tab
guitar tuner
×
Best way to learn
"El Uno Para El Otro"
Autoscroll
slow
fast
+/-
esc
set tempo
stop
hola amigos aki va mi segunda transcripcion de esta cancion tan
linda. ojala les guste bendiciones. envienme sus transcripciones
Saint-kj@
saludos.

hagen vibrato en cada final suena bien!!

(0:05)
e--------------------------------/
b-----8/10/8---------------------/
g-------------7/9/7------5/7~~---/
d-------------------10/7---------/
a--------------------------------/
E--------------------------------/

(0:12)
e---------------------------------/
b-------8/10/8--------------------/
g--------------9~-9h10p9----------/
d--------------------------10-9~~-/
a---------------------------------/
E---------------------------------/

(0:20)
e-----------8~~-----------------/
b-----8-10-----10~~-------------/
g-------------------------------/
d-------------------------------/
a------created by k3nj0rdy------/
E-------------------------------/

(0:26)
e----------------------------3---/
b-------8/10----8------------5---/
g-------7/9-----7------------5---/
d----------------------------5---/
a----------------------------3---/
E----------------------------3---/

(0:35)
e-----------8----10/12--8/10----/
b------8h10---10----------------/
g-------------------------------/
d-------------------------------/
a-------------------------------/
E-------------------------------/

(0:41)

e-----------8~~--12h13-12-10----------/
b------8h10------------------13-12~~--/
g-------------------------------------/
d------------Saint-kj@
a-------------------------------------/
E-------------------------------------/

(0:49)               (0:53)(*1)              (0:57)
e----------------/  e-----15--10/12------/  e-----------------/
b----------------/  b---------------13---/  b--------13-13/15-/
g----------------/  g--------------------/  g--12-14----------/
d---12/14---12---/
a----------------/
E----------------/

(1:10)(*2)                        (1:28)
e------------------------------/  ---------------15--10/12----/
b----------13----15/17--13/15--/  ----------13~-----------13--/
g----12h14----14---------------/  ----12h14-------------------/
d------------------------------/  ----------------------------/
a------------------------------/
E------------------------------/

de aki se repiten los punteos hasta el solo les pongo el tiempo
y os numeros(*)

(1:58)(2)
(2:13)(2)

(2:26)solo

e------------12-15-13-13-12~~------------------------------/
b------12-15-----------------------13--15-15/17-15-15-13~~-/
g-------------------------------14-------------------------/
d----------------------------------------------------------/
a-------------------k3nj0rdy-------------------------------/
E----------------------------------------------------------/

e------------------12-13-15-13-12-----------12-12h13-12-----/
b---------12-13-15----------------15-13~-15-----------------/
g------14---------------------------------------------------/
d-----------------------------------------------------------/
a-------------------created by k3nj0rdy---------------------/
E-----------------------------------------------------------/

e-------------------------------------/
b-----15/17/15--13-13/15--13-13/15----/
g-----------k-------------------------/
d------------3---r--------------------/
a-------------n-0-d--<saint-kj@
E--------------j---y------------------/


eso fue todo amigos es bien facil solo practiquenla
y deanle el efecto de vibrato a cada rato lo hace sonar bien
salu2 y dendiciones!! escribanme Saint-kj@
Suggest correction
Give kudos to tab author, rate the tab!
1 2 3 4 5
comments
print report bad tab
guest
You may want to rate the tab now too:
select rating
Wanna post a correction for this tab? Suggest correction