Oops, an error
Loading. Please wait.

Entre Tu Y Yo Tab

66 views 1 this week
no commentswrite comment
1 2 3 4 5
3 more votes to show rating
add to favorites
launch autoscroll
font size
0
reset
how to read this tab
guitar tuner
×
Best way to learn
"Entre Tu Y Yo"
Autoscroll
slow
fast
+/-
esc
set tempo
stop
Hola, e.e xd Solo Envio La Intro de Esta Cancion Que Creo Que
No Estaba y eso xd Bendiciones.

E|----13-12-13---13-13-15-17-15-13-12-13-12-----
B|-13---------------------------------------15--
G|----------------------------------------------
D|----------------------------------------------
A|----------------------------------------------
E|----------------------------------------------


E|----12-13-13-----12-13-13------13-15-15-------
B|-15----------11-----------11------------------
G|----------------------------------------------
D|----------------------------------------------
A|----------------------------------------------
E|----------------------------------------------
Suggest correction
Give kudos to tab author, rate the tab!
1 2 3 4 5
comments
print report bad tab
guest
You may want to rate the tab now too:
select rating
Wanna post a correction for this tab? Suggest correction