Oops, an error
Loading. Please wait.

Victoria Chords

33 views 1 this week
no commentswrite comment
1 2 3 4 5
3 more votes to show rating
add to favorites
×
Save as Personal and add changes to this tab that will be seen only by you. Learn more ›
×
You can save this tab as Personal to edit and correct it or add notes. All changes will be seen only by you. Learn more »
save as personal
new!
launch autoscroll
font size
0
reset
transpose
0
reset
display chords
guitar tuner
Autoscroll
slow
fast
+/-
esc
set tempo
stop
Strumming
There is no strumming pattern for this song yet. and get +5 IQ
Introducción:    E  A


e-|-----------------------------
B-|--0-4-5---4-5---4-5----------
G-|--------2-----4-----2--------
D-|-----------------------------
A-|-----------------------------
E-|-----------------------------


E                             A
No hay temor que ante el permanezca

E                                   A
No hay montaña que con mi fe No se pueda mover

F#m             B            E        G#m        A
Yo tengo la armadura Y la espada que quien me envío

F#m                        B               E
Me levanto y declaro victoria Ya Dios me la dio


e-|-----------------------------
B-|--0-4-5----------------------
G-|--------2--------------------
D-|-----------------------------
A-|-----------------------------
E-|-----------------------------


E                             A
No hay temor que ante el permanezca

E                                   A
No hay montaña que con mi fe No se pueda mover

F#m             B            E        G#m        A
Yo tengo la armadura Y la espada que quien me envío

F#m                        B                 E
Me levanto y declaro victoria Ya Dios me la dio  (Cántalo recíbelo)


Coro

E          C#m                A            B
Victoria Victoria Si Él a mi frente va Yo puedo cantar

E          C#m                A            B           E
Victoria Victoria Bandera levantare Y confesare Victoria

e-|-----------------------------
B-|--0-4-5----------------------
G-|--------2--------------------
D-|-----------------------------
A-|-----------------------------
E-|-----------------------------


E                             A
No hay temor que ante el permanezca, soy libre, (soy libreeee)

E                                         A
No hay montaña (no) que con mi fe No se pueda (se tiene que mover)

mover (en el nombre de Jesús)

F#m             B                       E        G#m        A
Yo tengo la armadura, armadura Y la espada que quien me envío (el está conmigo)

F#m                        B                            E
Me levanto y declaro victoria (recíbelo) Ya Dios me la dio

(ya lo tienes junto a ti ¡ho ho !)


E                   C#m
Victoria, Victoria victoria, (si el va conmigo)

             A                  B
 Si Él a mi frente va Yo puedo cantar

E                            C#m
Victoria,recíbela recíbela Victoria (recíbela) victoria( recíbela)
    A                      B
Bandera levantare Y confesare

     A
Victoria


        B
Aleluya, aleluya
        A
Aleluya, aleluya
        B
Aleluya, aleluya


E          C#m                A            B
Victoria Victoria Si Él a mi frente va Yo puedo cantar

E          C#m                A            B           E
Victoria Victoria Bandera levantare Y confesare Victoria

Final
                         E
e-|--5s-7-5-4-5--5-4-2-------7-7---5-5--4-2-0------
B-|--------------------4-5--------------------4-2-0
G-|--------------6-4-2-----------------------------
D-|--------------------4-6-------------------------
A-|------------------------------------------------
E-|------------------------------------------------

cualquier duda easy_arq@
saludos a mi sobrina Vicky
Suggest correction
Give kudos to tab author, rate the tab!
1 2 3 4 5
comments
print report bad tab
guest
Wanna post a correction for this tab? Suggest correction