Oops, an error
Loading. Please wait.

Tarjetitas Tab

version 2
version 2

Whole song

8 views 1 this week
no commentswrite comment
1 2 3 4 5
3 more votes to show rating
add to favorites
launch autoscroll
font size
0
reset
how to read this tab
guitar tuner
×
Best way to learn
"Tarjetitas"
Autoscroll
slow
fast
+/-
esc
set tempo
stop
Aqui les va el intro, solo y el final

 p - Pull off
   h - Hammer on
   s - Slide
   v ? Vibrato
   b ? Bend
   () ? Armónico Artificial

   Br ? Bend/release


Intro 00:01

-----------------15---14v-------10--12v-----15-14-12-10-------10s12v-
-----------------------------------------------------------12--------
-10s12v--------------------------------------------------------------
---------------------------------------------------------------------
---------------------------------------------------------------------
---------------------------------------------------------------------


--10h12p10---------------------15-14-10------------------------------
-----------8--8v-----8s10---------------10----8v---8h10--7vv---------
---------------------------------------------------------------------
---------------------------------------------------------------------
---------------------------------------------------------------------
---------------------------------------------------------------------

Solo 02:40

---------------------------------------------------------------------
--------------------13b---13b-13br13p12-13-12h13p12------------------
--5b------------------------------------------------12v---------7b---
---------------------------------------------------------------------
---------------------------------------------------------------------
---------------------------------------------------------------------


-------------------------------------7-7v---8p7--5v----------17b-----
-8-----------------------8-----8-10----------------------------------
---7v---5h7p5--------5s7-----7---------------------------------------
--------------5v-----------------------------------------------------
---------------------------------------------------------------------
---------------------------------------------------------------------


-17p15-------------------------------------------------------------15
-------16p15------------10v-----12-13-13br13p12----------------15b---
------------------------------------------------12v------------------
--------------16v----------------------------------------12----------
---------------------------------------------------------------------
---------------------------------------------------------------------


---------------------------------------------------------------------
-15br15p12-------------------------------------------------10--12----
------------14br14p12----14-12-------12------------------------------
----------------------14-------14-12----14-12------------------------
----------------------------------------------12v--------------------
---------------------------------------------------------------------


---------------------------------------------------------------------
-13p12-13p12p10----------------------------------------------15-15p14
---------------------------------------------------------------------
---------------------12-12p11-----12-12p11----12p11-12p11------------
------------------------------12-----------12------------------------
---------------------------------------------------------------------


---------------------------------------------------------------------
----16vv-------------------------------------------------------------
-14------------------------------------------------------------------
---------------------------------------------------------------------
---------------------------------------------------------------------
---------------------------------------------------------------------

Final 04:00

------------------------------12-11----------------------------------
------------------------------------12------------12vv---------------
------8-9-11v---9p8--------------------11-9-8v-----------------------
-7s9v---------------9v-----------------------------------------------
---------------------------------------------------------------------
---------------------------------------------------------------------
Suggest correction
Give kudos to tab author, rate the tab!
1 2 3 4 5
comments
print report bad tab
guest
You may want to rate the tab now too:
select rating
Wanna post a correction for this tab? Suggest correction