Oops, an error
Loading. Please wait.

One Blood Tab

version 1
version 1

Intro

Whole song

Interactive

31,235 views 9 this week
4 commentsread comments
1 2 3 4 5
x 5
add to favorites
launch autoscroll
font size
0
reset
how to read this tab
guitar tuner
Autoscroll
slow
fast
+/-
esc
set tempo
stop
Help us to improve Ultimate-Guitar.com Take our survey!
×
Author
Difficulty
intermediate
Hi everyone,
I cannot believe no one has tabbed this song yet. Its a great song. So heres the intro, 
my eyes:

e------------------------------------------------------|
b------------------------------------------------------|
g-----------------5-7-7b9r5-5h7------------------------|
d------------5h7-----------------5h7-------------------|
a----------5/7-----------------------------------------|
e----5--8----------------------------------------------|

e------------------------------------------------------|
b-----13p10-13-15-15b17r15p13h15-----------------------|
g---5/---------------------------1414-12-14------------|
d------------------------------------------------------|
a------------------------------------------------------|
e------------------------------------------------------|

e------------------------------------------------------|
b------------------------------------------------------|
g---12h14p12-------------------------------------------|
d-----------12h14-17/12-10-----------------------------|
a-------------------------12p10--10h12-----------------|
e------------------------------12----------------------|


...In the far away fires...
greenstreethooligans.com/win.html
Suggest correction
comments
print report bad tab
4 comments total. Showing first comments.
+2 reply
GoaT_MaN! 10 Oct 24, 2006 05:53 PM

Chords are C-G-F5-F5 x3 then C-C-F5-F5-Am-Am-Am-Am
in the far away....at the feet of our heroes....

0 reply
ARLY1 10 Apr 19, 2007 12:26 AM

wrong

+1 reply
tomex 10 Oct 02, 2008 06:48 PM

great song

guest
You may want to rate the tab now too:
select rating
Wanna post a correction for this tab? Suggest correction