Oops, an error
Loading. Please wait.

One Blood tab

version 1
version 1

Whole song

Interactive

6,707 views 9 this week
no commentswrite comment
1 2 3 4 5
2 more votes to show rating
add to favorites
×
Save as Personal and add changes to this tab that will be seen only by you. Learn more ›
×
You can save this tab as Personal to edit and correct it or add notes. All changes will be seen only by you. Learn more »
launch autoscroll
font size
0
reset
how to read this tab
guitar tuner
edit
Autoscroll
slow
fast
+/-
esc
set tempo
stop
Author
Difficulty
INTRO

-------------------------------------------------------------|
-------------------------------------------------------------|
----------------------------5-7-7s9--7s5-5h7-----------------|
--------------------5--5h7--------------------7-7--5-7-------|
-----------3--5s7--------------------------------------------|
------3s5----------------------------------------------------|


--8-------8-10-10b12--10p8-10p8--------------------------------------------|
------10-------------------------10--8h10--8h10p8--------------------------|
9-------------------------------------------------7s9-9s7-7s5--------------|
---------------------------------------------------------------7p5----5h7--|
--------------------------------------------------------------------7------|
---------------------------------------------------------------------------|


or chords are c,g,f

		  C	G	F
In the far away fires
			C	G	F
Where the hills forever burn
			Em	Dm
At the feet of our heroes
		Am	F/A	Am
We try hard to learn
		   C	    G	F
But the lesson is lost there
		      C	    G	Dm
In the smoke and the mud
		Em		Dm		C
That we are one flesh, one breath, one life, one blood

G	F	C	G	F

		C	G	F
I stood by the river
		    C	  G	F
That ran red with shame
	          Em		Dm
I stood in the killing fields
		    Am	  F/A	Am
Where death had no name
		C	G	F
I stood with my brothers
		C	G	Dm
And away it flood
		Em		Dm		C
And we were one flesh, one breath, one life, one blood

G	F	C	G	F

		    C	   G	F
Then I felt to the ground
		  C	  G	F
Tasted ashes on my tongue
		Em		Dm
Thinking that only the dead
	      Am	F/A	Am
Are forever young

-----
SOLO
-----
b=bend
r=release
h=hammer
/=slide
~=vibrato


------------------------------------------------------------------------|
----------------------------------------------------------13--15brbr----|
--------------------------------------14----------12--14----------------|
------------------------------12--14------------------------------------|
--12--------12----------12/15-------------------------------------------|
------------------------------------------------------------------------|

---------------------------------------------------------------------------|
--h13-------13--15----------13--15------------17br------15--17h15----------|
------14------------14b-------------12~---------------------------17-------|
---------------------------------------------------------------------------|
---------------------------------------------------------------------------|
---------------------------------------------------------------------------|

---------------------------------------------|
------13--15br-h13-15-----------------12-----|
--14---------------------14br-12-14------12--|
---------------------------------------------|
---------------------------------------------|
---------------------------------------------|

-------------------------------------------------------------------------|
----------------15----15----17-----------------------12br----------------|
------12-14/16-----16---------------14br-12-----------------14--12-14----|
--14---------------------------------------14--14------------------------|
-------------------------------------------------------------------------|
-------------------------------------------------------------------------|

---------------------------------------------------|
---------------------------------------------------|
-----------------------------------------12--------|
--12br---10-12-10------------10----12/14-----14/12-|
-----------------12--12----------------------------|
---------------------------------------------------|

------------------------------------------------|
------------------------------------------------|
------------------------------------------------|
----------------5-------------------------------|
--12--12----5/7------7/5------------------------|
-------------------------5------3h-5--3----5----|


chords for solo are c,g,f
			C	G	F
There was peace in the twilight
		  C	G	F
And for a moment among
			Em	Dm
It was a world without danger
		Am	F/A	Am
A world without war
			   C		G	F
And I will take all your suffering
		C	G	Dm
It will do any good
		Em		Dm		C	G	F
Cause we are one flesh, one breath, one life, one blood

C	G	F
Suggest correction
Creating personal tab
Creating personal tab
You can edit any tab online and save it as your Personal.

You can edit, replace or remove any tab part or add personal notes – all changes will be seen only by you.

Personal tabs can be accessed anytime from any device, even offline.
Learn more »
Give kudos to tab author, rate the tab!
1 2 3 4 5
comments
print report bad tab
guest
You may want to rate the tab now too:
select rating
Wanna post a correction for this tab? Suggest correction