Oops, an error
Loading. Please wait.

Fallin tab

263 views 1 this week
no commentswrite comment
1 2 3 4 5
2 more votes to show rating
add to favorites
×
Save as Personal and add changes to this tab that will be seen only by you. Learn more ›
×
You can save this tab as Personal to edit and correct it or add notes. All changes will be seen only by you. Learn more »
launch autoscroll
font size
0
reset
how to read this tab
guitar tuner
edit
Autoscroll
slow
fast
+/-
esc
set tempo
stop
Author
Difficulty
Fallin’ by Teri Desario (Incomplete)

Tabs written and arranged by Edwin-E (in YouTube)
Blog: http://guitarplucking.blogspot.com
Facebook Page: EGuitar

Video Tutorial:  http://www.youtube.com/watch?v=R_o00ruwJWI

Intro:

E|--------5--5-----0--3--3--------2--2--3--0-----0--|
B|-----7--------2--------------3-----------------2--|
G|--7-----------------------4--------------------0--|
D|--0-----------------------5-----------------2--2--|
A|--------------0--------------------------0--------|
E|--------------------------------------------------|

E|--------5--5-----0--3--3--------2--2--3--0-----0--|
B|-----7--------2--------------3-----------------2--|
G|--7-----------------------4--------------------0--|
D|--0-----------------------5-----------------2--2--|
A|--------------0--------------------------0--------|
E|--------------------------------------------------|


Verse:

E|--2--2--0-----------------2--2--2--0--2--5/7--5--------2--|
B|--3--------3--0-----------2--3-------------------------2--|
G|--4--------------2--------2--4-------------------------2--|
D|--5--------------------4--4--5----------------------4--4--|
A|--------------------4-----4----------------------4-----4--|
E|-----------------2----------------------------2-----------|
GM7       A      F#m     GM7      A          F#m
   I'm afraid to fly        and I don't know why


E|-----8--9--9--------5--5--3--2--------0-----------0--|
B|--2--------------7-----------2--5--3-----------2--2--|
G|--------------7-----------------------------0-----0--|
D|-----------------0-----------------------2--------2--|
A|-----9--------------------------------0--------------|
E|--------------------------0--2--3--------------------|
     G               D            Em   F#m   G  (Adim)    A
I'm jealous of the people who are not   a--fraid   to    die


E|--2--2--0-----------------2--2--2--0--2--5/7--5--------2--|
B|--3--------3--0-----------2--3-------------------------2--|
G|--4--------------2--------2--4-------------------------2--|
D|--5--------------------4--4--5----------------------4--4--|
A|--------------------4-----4----------------------4-----4--|
E|-----------------2----------------------------2-----------|
GM7               A F#m     GM7          A      F#m
   It's just that I recall     back when I was small


E|-----8--9--9--------5--5--3--2--------0--|
B|--2--------------7-----------2--5--3-----|
G|--------------7--------------------------|
D|-----------------0-----------------------|
A|-----9--------------------------------0--|
E|--------------------------0--2--3--------|
         G                   D            Em  F#m   G      A7sus
Someone promise that they'd catch me and then they let me fall

Chorus:

E|--2--3--5--7--5--7--5--7--5--2-----------2--|
B|--------------------------------5--3-----3--|
G|-----------------------------------------4--|
D|--------------------------------------4--4--|
A|-----------------------------------2-----2--|
E|-----------3--2--3--2--3--2-----------------|
     A7     G  F#m (break)  G F#m   F#    Bm
And now I’m fallin,        fallin' fast  again


E|----9--10--10--10--------5--5--0--2--3--2--0--|
B|----8-----------------7-----------2--3--2-----|
G|----7--------------7--7-----------------2-----|
D|----------------------0-----------------------|
A|----------------------------------------0-----|
E|-------------------------------0--2--3--------|
     G          D             Em   F#m   G  (A7sus,A7) (Intro)
Why do I always take a fall,  when  I  fall        in  love

(Just follow the same tabs for the rest of the song)

            
            
Suggest correction
Creating personal tab
Creating personal tab
You can edit any tab online and save it as your Personal.

You can edit, replace or remove any tab part or add personal notes – all changes will be seen only by you.

Personal tabs can be accessed anytime from any device, even offline.
Learn more »
Give kudos to tab author, rate the tab!
1 2 3 4 5
comments
print report bad tab
guest
You may want to rate the tab now too:
select rating
Wanna post a correction for this tab? Suggest correction