Oops, an error
Loading. Please wait.

Dark tab

version 1
version 1

Whole song

1,333 views 1 this week
2 commentsread comments
1 2 3 4 5
1 last vote to show rating
add to favorites
×
Save as Personal and add changes to this tab that will be seen only by you. Learn more ›
×
You can save this tab as Personal to edit and correct it or add notes. All changes will be seen only by you. Learn more »
launch autoscroll
font size
0
reset
how to read this tab
guitar tuner
edit
Autoscroll
slow
fast
+/-
esc
set tempo
stop
Song: Dark
Band: Terminal
Tabbed by: Patrick Lackemacher
Solo tabbed by: tED(L) with some minor modifications by me.

Just in case you didn't read the above line, I DID NOT DO THE SOLO.
The solo was provided to keep the tab complete.

Guitar 1 (Rhythm) Tuning: Drop-D
Guitar 2 (Lead) Tuning: Drop-D

Piano Intro (0:10):
e|--------------------|
B|-14-13--11-14-------|
G|--------------10-13-|
D|--------------------|
A|--------------------|
D|--------------------|

Guitar 1:
Fades in at (0:16)
Intro:
e|-----|
B|-----|
G|-888-| Let ring for a short time after you play each set.
D|-xxx-|
A|-666-|
D|-----| x10

e|---|
B|---|
G|-8-| Silence the strings after each stroke.
D|-x-|
A|-6-|
D|---| x24

Intro Part 2 (0:52):
e|----------------------|
B|----------------------|
G|----------------------|
D|--3----6----11----10--|
A|--3----6----11----11--|
D|--3----6----11----10--|
   This is 11 ^

Chorus (0:59):
e|-------------------------------------|
B|-------------------------------------|
G|-------------------------------------|
D|-88888888-33333333-66666666-11111111-|
A|-88888888-33333333-66666666-11111111-|
D|-88888888-33333333-66666666-11111111-| x2
                    These are 1's ^
(1:17):
e|---|
B|---|
G|-8-|
D|-x-|
A|-6-| x112 (Yes, 112 :P)
D|---|

Pre-Chorus (1:41):
e|--------------------------------------------------|
B|--------------------------------------------------|
G|--------------------------------------------------|
D|-333333336666666611111111111111111010101010101010-|
A|-333333336666666611111111111111111111111111111111-|
D|-333333336666666611111111111111111010101010101010-|
PM ................. . . . . . . . . . . . . . . .
            These are 11's ^

e|-------------------------|
B|-------------------------|
G|-------------------------|
D|-10-10-10-10-10-10-10-10-|
A|-11-11-11-11-11-11-11-11-|
D|-10-10-10-10-10-10-10-10-|

Chorus (1:56) x4

Bridge (2:24):
e|----|
B|----|
G|-10-|
D|-x--|
A|-8--|
D|----| x24

(2:29):
e|-------|
B|-------|
G|-------|
D|-66-88-|
A|-66-88-|
D|-66-88-|

e|-----------------------------------------|
B|-----------------------------------------|
G|-----------------------------------------|
D|-333-1111111111-88-66-88--333-1111111111-|
A|-333-1111111111-88-66-88--333-1111111111-|
D|-333-1111111111-88-66-88--333-1111111111-|
           ^   These are all 11    ^

e|-+12-|
B|-+12-| Harmonic
G|-+12-| I'm not positive but it sounds pretty good.
D|-+12-|
A|-+12-|
D|-+12-|

e|-----------------------------------------------|
B|-----------------------------------------------|
G|-----------------------------------------------|
D|-333-1111111111-88-66-88--333-1111111111-66-88-|
A|-333-1111111111-88-66-88--333-1111111111-66-88-|
D|-333-1111111111-88-66-88--333-1111111111-66-88-| x2

(2:52):
e|---------------------------------------------------------------|
B|---------------------------------------------------------------|
G|---------------------------------------------------------------|
D|-3----6----11----10----3----6----11----10-10-10-10-10-10-10-10-|
A|-3----6----11----11----3----6----11----11-11-11-11-11-11-11-11-|
D|-3----6----11----10----3----6----11----10-10-10-10-10-10-10-10-|

Acoustic Guitar (3:06):
e|-------------------------------------|
B|-------------------------------------|
G|----------------------------88888888-|
D|-88888888-33333333-66666666-88888888-|
A|-88888888-33333333-66666666-66666666-|
D|-88888888-33333333-66666666----------|

Chorus (3:13) x3

Outro (3:34):
e|------------------|
B|------------------|
G|------------------|
D|-15--11--6-88-8-6-|
A|-15--11--6-88-8-6-|
D|-15--11--6-88-8-6-| x3

e|--------|
B|--------|
G|--------|
D|-11---3-|
A|-11---3-|
D|-11---3-|


Guitar 2:
After first time through with piano.
Fades in with Guitar 1.
Intro:
e|----------------------------------|
B|----------------------------------| This seems too simple so I'm
G|----------------------------------| betting there's more to it.
D|-6666666655555555-----------------| Sounds right though.
A|-----------------6666666666666666-|
D|----------------------------------|

Chorus (0:59) same as Guitar 1

Some part (1:17):
e|---------------------|
B|-------------8-------|
G|--8-10---------8-----|
D|-------10--------10--|
A|---------------------|
D|---------------------|

(1:41):
e|--------------------|
B|-8-8-8--------------|
G|----------------8-8-|
D|-------10-10-10-----|
A|--------------------|
D|--------------------| x3

e|----------------|
B|-8-8-8-------8b-|
G|----------------|
D|-------10-10----|
A|----------------|
D|----------------|
Then do the whole thing again.

From (1:56) to (3:20) you play everything the same as Guitar 1.

Solo by tED(L) (3:20):
e|-----------------13----------13-----------13------------------------|
B|--13/16-13----13----16----13----16------13--161315------------------|
G|-----------15----------15-----------1515----------13-13-12-12-13-13-|
D|--------------------------------------------------13-13-12-12-13-13-|
A|--------------------------------------------------11-11-10-10-11-11-|
D|--------------------------------------------------------------------|

e|--------------------------------------------------------------------------|
B|-14-13----------------14-13-----------------------------------------------|
G|-------13-15-13-13-13-------13-15-13-13-13-15b-13-12h13-12----------------|
D|-----------------------------------------------------------13-13-13/15\13-|
A|--------------------------------------------------------------------------|
D|--------------------------------------------------------------------------|

e|--16r-15r----16r-15r-----16-15----16-15----16-15----16-15----16-----------|
B|---------16r--------16r--------16-------16------16--------16----16--------|
G|--------------------------------------------------------------------------|
D|--------------------------------------------------------------------------|
A|--------------------------------------------------------------------------|
D|--------------------------------------------------------------------------|

e|--16h18-16h18-16h18-16h18-16h18-16h18-16h18-16h18-16h18-16h18-16h18-16h18-|
B|--------------------------------------------------------------------------|
G|--------------------------------------------------------------------------|
D|--------------------------------------------------------------------------|
A|--------------------------------------------------------------------------|
D|--------------------------------------------------------------------------|

e|-16h18-16h18-16h18-16h18-16h18-18b-16-15------|
B|-----------------------------------------16\--|
G|----------------------------------------------|
D|----------------------------------------------|
A|----------------------------------------------|
D|----------------------------------------------|

| /  slide up
| \  slide down
| h  hammer-on
| p  pull-off
| ~  vibrato
| +  harmonic
| x  Mute note
===============================================================================
Suggest correction
Creating personal tab
Creating personal tab
You can edit any tab online and save it as your Personal.

You can edit, replace or remove any tab part or add personal notes – all changes will be seen only by you.

Personal tabs can be accessed anytime from any device, even offline.
Learn more »
Give kudos to tab author, rate the tab!
1 2 3 4 5
comments
print report bad tab
2 comments total.
0 reply
DarkDallasNight 182 Jun 27, 2007 03:44 PM

Hey dude thanks for tabbing this, I've been looking for this.

0 reply
sexlove45 110 Aug 13, 2007 08:37 PM

your missing small guitar parts that you can hear in parts but its very easy to figure out. other then that good job

guest
You may want to rate the tab now too:
select rating
Wanna post a correction for this tab? Suggest correction