Oops, an error
Loading. Please wait.

Not All Bad tab

version 1
version 1

Whole song

663 views 1 this week
no commentswrite comment
1 2 3 4 5
3 more votes to show rating
add to favorites
×
Save as Personal and add changes to this tab that will be seen only by you. Learn more ›
×
You can save this tab as Personal to edit and correct it or add notes. All changes will be seen only by you. Learn more »
launch autoscroll
font size
0
reset
how to read this tab
guitar tuner
edit
Autoscroll
slow
fast
+/-
esc
set tempo
stop
Author
Difficulty
-------------------------------------------------------------------------------
                        Not All Bad - Terminal
-------------------------------------------------------------------------------
Tabbed by:Joel
Email:coalrocket@yahoo.com

Terminal, a very good band that everyone who listens to alternative should give a listen to.

Tuning:Standard
Intro - Figure out the strumming
" I barely know...."
e|---0---0---0---0--------------------------------------------------------|
B|---0---0---0---0--------------------------------------------------------|
G|---6---2---4---11-------------------------------------------------------|
D|---6---2---4---11-------------------------------------------------------|
A|---4---0---2---9--------------------------------------------------------|
E|------------------------------------------------------------------------|


"Nothing's quite as hard...."
intro goes into electric
e|--------------------------------------------------------------------------|
B|--------------------------------------------------------------------------|
G|---6---2---4--------------------------------------------------------------|
D|---6---2---x---4----------------------------------------------------------|
A|---4---0---2---4----------------------------------------------------------|
E|---------------2----------------------------------------------------------|

"Couldn't we all use the company...."
Chorus - firgure out the srtumming
e|-------------------------------------------------------------------------|
B|-------------------------------------------------------------------------|
G|---6---------------------------------------------------------------------|
D|---6---2---9---4---------------------------------------------------------|
A|---4---2---9---4---------------------------------------------------------|
E|-------0---7---2---------------------------------------------------------|


"Let's catch a movie...."
*repeat Intro electric


*Solo- figure out yourself


"Couldn't we ......"
*Chorus


2:08 "Let's stay out all night..."
e|------0--------------------0-----------------------------------------|
B|----4--4-4----(x6)-------2---2---(x2)--------------------------------|
G|---4-4--4---------------3-3---3--------------------------------------|
D|---------------------------------------------------------------------|
A|---------------------------------------------------------------------|
E|---------------------------------------------------------------------|

2:20 "Take the world for More..."
-figure out the strumming
e|-------------------------------------------------------------------------|
B|-------------------------------------------------------------------------|
G|-------8--9--8--9--8--4-----------8--9--11-------------------------------|
D|-------x--x--x--x--x--x---(x3)----x--x--x--------------------------------|
A|-------6--7--6--7--6--2-----------6--7--9--------------------------------|
E|-------------------------------------------------------------------------|


2:34  "When the sun is coming up...."
-figure out the strumming
e|--------------------------------------------------------------------|
B|--------------------------------------------------------------------|
G|------11--9--8--4---------------------------------------------------|
D|-------x--x--x--x---(x8)--------------------------------------------|
A|-------9--7--6--2---------------------------------------------------|
E|--------------------------------------------------------------------|


3:03 " couldnt we...."
figure out the strumming
*palm muted chorus
e|---------------------------------------------------------------------|
B|---------------------------------------------------------------------|
G|---6-----------------------------------------------------------------|
D|---6---2---9---4-----------------------------------------------------|
A|---4---2---9---4-----------------------------------------------------|
E|---x---0---7---2-----------------------------------------------------|
         x   x   x


3:28 "Couldn't we..."
repeat regular chorus

well that is most of the song, hope you enjoy. please leave comments and let me know what you think

| /  slide up
| \  slide down
| h  hammer-on
| p  pull-off
| ~  vibrato
| +  harmonic
| x  Mute note
===============================================================================

            
            
Suggest correction
Creating personal tab
Creating personal tab
You can edit any tab online and save it as your Personal.

You can edit, replace or remove any tab part or add personal notes – all changes will be seen only by you.

Personal tabs can be accessed anytime from any device, even offline.
Learn more »
Give kudos to tab author, rate the tab!
1 2 3 4 5
comments
print report bad tab
guest
You may want to rate the tab now too:
select rating
Wanna post a correction for this tab? Suggest correction