Oops, an error
Loading. Please wait.

Alakza Tab

14 views 1 this week
no commentswrite comment
1 2 3 4 5
3 more votes to show rating
add to favorites
launch autoscroll
font size
0
reset
how to read this tab
guitar tuner
×
Best way to learn
"Alakza"
Autoscroll
slow
fast
+/-
esc
set tempo
stop
INTRO


E|-----0----------0------------1-----------3---3--------
B|--1----1-----------0------------1--------0------0-----
G|--2------2-----------0-------------2-----0---------0--
D|--2----------2-----------3---------------0------------     x3
A|-------------2-----------3---------------2------------
E|-------------0-----------1---------------3------------

A la segunda vez de la intro toca este solo muy lentamente y
dura la segunda y tercera vez de la intro.

E|------------------------------5-7--
B|-7--8-7--8-7-5-7-8--8-7-5-8-7------
G|-----------------------------------
D|-----------------------------------
A|-----------------------------------
E|-----------------------------------


Aki empieza la letra y distorsion de las guitarras

hace dos rondas con estas quintas -->  A-E-F-G  x2

A            E             F            G
Una noche cualquiera una joven regresa a su hogar

A            E             F           G
Una mente enferma acecha en la oscuridad.

A            E           F           G
Sintiendo el peligro se refugia en un local.

A           E            F      G(se deja sonar)
Ella tuvo suerte, otra, tal vez no la tendrá


Un, dos, tres  y ....

(cambio de ritmo)  A-E-F-G  x2

Aki hace otro cambio al ritmo de antes o similar.
A                E
El camino nunca fué tan peligroso,

F                 G
sobretodo cuando la intentan violar

A               E
Por fortuna ella logro escapar,

 F                        G  GGG GGG G
otras mujeres no tuvieron tanta suerte.

E|---------
B|---------
G|---------
D|---------
A|---------
E|1-3-2-0--       Aki a ritmo de ska  Am-E-F-G  x6


EL SOLO (entra despues de la primera de las  6 rondas de acordes)

Akí entran las tromeptas
y la voz de Agus (vocalista y guitarra de Los de Marras)

Hace  A-E-F-G x2  en Ska antes de meter la voz.


A       E      F    G
Una lacra social,

A      E       F     G
de jodidos enfermos,

A      E        F    G
que no pueden follar,

A      E        F       G
si no es por la fuerza


y mete ditorssion otra vez
con A-E-F-G x2
A            E
A la caza del violador

F            G
a causado demasiado dolor       x3 ( y en palm muted)

Ahora A-A-A-A-E-E-E-E-F-F-F-F-G-G-G-G

(cada acorde es un golpe hacia abajo)

y la 2º vez hace A-A-A-A-E-E-E-E-F-F-F-F-G-G-G-G-G-G-A-SI

y entra la guitarra en limpio con la intro en distorsion

E|-----0----------0------------1-----------3---3--------
B|--1----1-----------0------------1--------0------0-----
G|--2------2-----------0-------------2-----0---------0--
D|--2----------2-----------3---------------0------------     x3
A|-------------2-----------3---------------2------------
E|-------------0-----------1---------------3------------

E|------------------------------5-7--
B|-7--8-7--8-7-5-7-8--8-7-5-8-7------
G|-----------------------------------
D|-----------------------------------  entra a la segunda ronda.
A|-----------------------------------
E|-----------------------------------

Es el primer tab ke me sako, es posible k este mal,
peusto k muxo oido no tengo, si no es bastante parecido,
lo subo xke es la priemra de termo en esta web y abra gente k le mole
MI mismo rollo, Aber SI sako alguna de desera o kolico,
ya ke de los de marras estoy seguro k otra persona los sacara por mi
saludos y espèro k os mole
ATENTAMENTE: Víktor M.R..
Suggest correction
Give kudos to tab author, rate the tab!
1 2 3 4 5
comments
print report bad tab
guest
You may want to rate the tab now too:
select rating
Wanna post a correction for this tab? Suggest correction