Oops, an error
Loading. Please wait.

Bella Tab

96 views 1 this week
no commentswrite comment
1 2 3 4 5
3 more votes to show rating
add to favorites
launch autoscroll
font size
0
reset
how to read this tab
guitar tuner
×
Best way to learn
"Bella"
Autoscroll
slow
fast
+/-
esc
set tempo
stop
Hola gente....bueno...aqui pongo el intro de este tema, q ya tiene
unos excelentes acordes subidos antes...

ahi les va...espero q les suene bien...

00.23 "

S= arrastrado

e ---8--8--8--7--7--5--5--5s-7----8--8--8--7--7--5--
B --------------------------------------------------
G ---9--------7-----5-----5s-7----9--------7-----5--
D --------------------------------------------------
A --------------------------------------------------
E --------------------------------------------------


e ---10s--12--10---8--7--7--5--5--4--4--4s-5--7--7--
B --------------------------------------------------
G ---10s--12--10---9--7--7--5--5--4--4--4s-5--7--7--
D --------------------------------------------------
A --------------------------------------------------
E --------------------------------------------------


e 5--5--4--4s-5--7--7---*8---8 *
B ----------------------*-5-5  * repetido
G 5--5--4--4s-5--7--7---*--5-  *
D -----------------------------
A -----------------------------
E -----------------------------

BUeno gente...ponganle ritomo de cumbia y suena una masa...

dudas, seguerencias, lo q sea...  mauro_kpo_2@
Suggest correction
Give kudos to tab author, rate the tab!
1 2 3 4 5
comments
print report bad tab
guest
You may want to rate the tab now too:
select rating
Wanna post a correction for this tab? Suggest correction