Oops, an error
Loading. Please wait.

Bala Perdida Tab

65 views 1 this week
no commentswrite comment
1 2 3 4 5
3 more votes to show rating
add to favorites
launch autoscroll
font size
0
reset
how to read this tab
guitar tuner
×
Best way to learn
"Bala Perdida"
Autoscroll
slow
fast
+/-
esc
set tempo
stop
Intro:    D5 - F#5 - B5 - G5(Palm mute)

D5      F#5      B5     G5
yo no sé que hacer contigo

D5      F#5      B5          G5
siento que soy menos que el aire

D5      F#5       B5       G5
quiero salir de este momento

D5       F#5       B5     G5
frustración hay dentro de mi

D5
soy una bala perdida en la noche

F#5
buscando tu piel para acariciarla

B5
quisiera saber quien tiró del gatillo

G5
para hacer un pacto con él

D5
estoy esperando que pasen las horas

F#5
que se muera el día se borren las sombras

B5
estoy esperando que llegue el silencio

G5
para hacer un pacto con él

D5       F#5       B5       G5
hay algo que escapa del mundo

D5        F#5        B5       G5
tu ignorancia no puedo aguantar

D5      F#5     B5     G5
creo que debemos dejarnos

D5      F#5      B5      G5
frustración hay dentro de mi

D5
soy una bala perdida en la noche

F#5
buscando tu piel para acariciarla

B5
quisiera saber quien tiró del gatillo

G5
para hacer un pacto con él

Solo:


e--2---3-2-----3-2----3-2----|----2-----3-2----3-2----3-2-----
b----3------2-------0-----3--|-------3-------2-----0-------3v-
g----------------------------|--------------------------------
d----------------------------|--------------------------------
a----------------------------|--------------------------------
E----------------------------|--------------------------------

e----------------------------------------------------
b----------------------------------------------------
g---7-7-7-7-7-9-9-9-11-11-11-------------------------
d---7-7-7-7-7-9-9-9-11-11-11---4-4-4-4-4-5-5-5-7-7-7-
a---5-5-5-5-5-7-7-7-9--9--9----4-4-4-4-4-5-5-5-7-7-7-
E------------------------------2-2-2-2-2-3-3-3-5-5-5-


e--------------------------------------------
b--------------------------------------------
g-4-4-4-4-4-7-7-7-9-9-9----------------------
d-4-4-4-4-4-7-7-7-9-9-9----5-5-5-5-5---7-5---
a-2-2-2-2-2-5-5-5-7-7-7----5-5-5-5-5-------5v
E--------------------------3-3-3-3-3---------

D5      F#5      B5      G5
ni siquiera conozco tu nombre

D5      F#5      B5      G5
puede ser que no estés ahí

D5      F#5      B5        G5
somos parte del limbo terrestre

D5      F#5      B5      G5
frustración hay dentro de mi

D5
soy una bala perdida en la noche

F#5
buscando tu piel para acariciarla

B5
quisiera saber quien tiró del gatillo

G5
para hacer un pacto con él

D5
estoy esperando que pasen las horas

F#5
que se muera el día se borren las sombras

B5
estoy esperando que llegue el silencio

G5
para hacer un pacto con él....(con el, con el)

D5                              F#5  B5   G5
soy una bala perdida en la noche (con el con el)

D5                               F#5  B5  G5
buscando tu piel para acariciarla (con el con el)

D5                                    F#5  B5  G5
quisiera saber quien tiró del gatillo (con el con el)

D5                         F#5      B5       G5
para hacer un pacto con él uhh uhhh uhh uhh uhh uhh
Suggest correction
Give kudos to tab author, rate the tab!
1 2 3 4 5
comments
print report bad tab
guest
You may want to rate the tab now too:
select rating
Wanna post a correction for this tab? Suggest correction