Oops, an error
Loading. Please wait.

Nunca Para Ti Tab

94 views 1 this week
no commentswrite comment
1 2 3 4 5
3 more votes to show rating
add to favorites
×
Save as Personal and add changes to this tab that will be seen only by you. Learn more ›
×
You can save this tab as Personal to edit and correct it or add notes. All changes will be seen only by you. Learn more »
save as personal
new!
launch autoscroll
font size
0
reset
how to read this tab
guitar tuner
Autoscroll
slow
fast
+/-
esc
set tempo
stop
INTRO

8vas seguido por los acordes
B5 - A#5 - E5*

PARTE 1
1---------------------------|
2---------------------------|
3-8-(x6)-9-(X2)-11-(x3)-----|
4-X------x------x-----------|
5-6------7------9-----------|
6---------------------------|

 REPITES LA PARTE 1 SEGUIDO DE ESTO

1---------------------------|
2---------------------------|
3--13-(x5)-16-(3)-18--16----|
4--x-------x------x---x-----|
5--11------14-----16--14----|
6---------------------------|

REPITES LA PARTE 1 SEGUIDO DE ESTO

1------------------|
2------------------|
3--13-(x5)-16------|
4--x-------x-------|
5--11------14------|
6------------------|

B5
Cuando las cosas no salen,
                         A#5
Cuando hay vacíos y no sé qué hacer
E5*                          B5
Pienso en ti y vuelvo a sonreír

B5
Cuando estoy destruido,
                          A#5
Cuando la presión se apodera de mí
E5*                          B5
Pienso en ti y vuelvo a sonreír

C#5       A5        B5
Todo es posible ya ves
C#5         A5          F#5*
Todo es más fuerte que ayer

AQUÍ SON LOS MISMOS ACORDES

(B5 - A#5 - E5* - B5)

Cuando la noche es oscura,
Cuando la esperanza está por morir
Pienso en ti y vuelvo a sonreír

Cuando no estoy preparado,
Cuando los temores andan por ahí
Pienso en ti y vuelvo a sonreír

(C#5 - A5 - B5
 C#5 - A5 - F#5*)

Todo es posible ya ves
Todo es más fuerte que ayer

1---------------------------|
2---------------------------|
3-8-(x6)-9-(X2)-11-(x3)-----|
4-X------x------x-----------|
5-6------7------9-----------|
6---------------------------|

 REPITES LA PARTE 1 SEGUIDO DE ESTO

1---------------------------|
2---------------------------|
3--13-(x5)-16-(3)-18--16----|
4--x-------x------x---x-----|
5--11------14-----16--14----|
6---------------------------|  X2


(C#5 - A5 - B5
 C#5 - A5 - F#5*)
Todo es posible ya ves
Todo es más fuerte que ayer

B5                      A#5
Y es que pienso en ti, (Y es que pienso en ti)
E5*                 B5
Sólo pienso en ti, (Sólo pienso en ti )
B5                    A#5
Pero recuérdalo bien, (Pero recuérdalo bien)
E5*                   B5
Nunca viviré para ti (Nunca viviré para ti...)
B5                    A#5
Nunca viviré para ti (Nunca viviré para ti...)
E5*                   B5
Nunca viviré para ti (Nunca viviré para ti...)
B5                    A#5*
Nunca viviré para ti (Nunca viviré para ti...)
E5*                   B5 - A#5 - E5*- B5 ????????..B5
Nunca viviré???..para ti

DUDAS, CORRECCIONES y/o CRÍTICAS
AL FB 
Suggest correction
Give kudos to tab author, rate the tab!
1 2 3 4 5
comments
print report bad tab
guest
Wanna post a correction for this tab? Suggest correction