Oops, an error
Loading. Please wait.

Overcome bass

version 1
version 1

Whole song

Interactive

by Terror
6,319 views 3 this week
2 commentsread comments
1 2 3 4 5
3 more votes to show rating
add to favorites
×
Save as Personal and add changes to this tab that will be seen only by you. Learn more ›
×
You can save this tab as Personal to edit and correct it or add notes. All changes will be seen only by you. Learn more »
launch autoscroll
font size
0
reset
guitar tuner
edit
Autoscroll
slow
fast
+/-
esc
set tempo
stop
Difficulty
intermediate
Overcome - Terror

Intro:

F |---------------------------------------|
C |---------------------------------------|
G |7-7Palm-Mutes-7~-7Palm-Mutes-8~--------|
C |---------------------------------------|

Riff 1:

Repeat x1 then repeat x 1 with palm mutes after the 7~
F |---------------------------------------------------------|
C |---------------------------------------------------------|
G |8-10-7~----8-10-7~----10-10---8-10-7~----8-10-7~---10-10-|
C |---------------------------------------------------------|

Bass Line Fill

F |-9-7---------------|
C |-----8-7-----------|
G |7-7-7-7-7-10-7-----|
C |-------------------|

Riff 2:

Repeat x 3 then                         notes before breakdown
F |-----------------------9-10-9-7-9-9-|-----------------------|
C |------------------------------------|-----------------------|
G |-10--10-8-10-13-8-10-7--------------|10---13----------------|
C |------------------------------------|-----------------------|

Breakdown:

Repeat x2
F |------------------------------------|
C |------------------------------------|
G |------------------------------------|
C |8-7-10-12-7--7-8-7-10-12-7--7-7~----|

Riff 1:

Repeat x1 then repeat x 1 with palm mutes after the 7~
F |---------------------------------------------------------|
C |---------------------------------------------------------|
G |8-10-7~----8-10-7~----10-10---8-10-7~----8-10-7~---10-10-|
C |---------------------------------------------------------|

Riff 2:

Repeat x 3 then                         notes before breakdown
F |-----------------------9-10-9-7-9-9-|-----------------------|
C |------------------------------------|-----------------------|
G |-10--10-8-10-13-8-10-7--------------|10---13----------------|
C |------------------------------------|-----------------------|

Breakdown:

Repeat x2
F |------------------------------------|
C |------------------------------------|
G |------------------------------------|
C |8-7-10-12-7--7-8-7-10-12-7--7-7~----|

Fill Before 2nd Breakdown:

F |--------------------------------------------|
C |--------------------------------------------|
G |7~--1110-8-10-8--88-10-8-7~--1110-8-10-7----|
C |--------------------------------------------|

2nd Breakdown:

F |----------------------------------------------------------|
C |----------------------------------------------------------|
G |11-10-8--7-777-7-777-11-10-8-7-777-7-777-10/11-10/11-10-8-|
C |----------------------------------------------------------|

Outro:

F |-----------------------------------------------|
C |-----------------------------------------------|
G |7~--7~--7-11-10-8-7~--7~--7-10h11-10h11-8-7--7-|
C |-----------------------------------------------|

thats the whole song leave comments please

            
            
Suggest correction
Creating personal tab
Creating personal tab
You can edit any tab online and save it as your Personal.

You can edit, replace or remove any tab part or add personal notes – all changes will be seen only by you.

Personal tabs can be accessed anytime from any device, even offline.
Learn more »
Give kudos to tab author, rate the tab!
1 2 3 4 5
comments
print report bad tab
2 comments total.
0 reply
tcx 10 Sep 26, 2006 11:04 AM

hey dude how is it going!

sorry to bother Just wanted to know if you ever tabbed any songs from terror

am looking for the overcome tab of terror if you now of any body that might have let me know please

hope you can help Thank you and see you around

by the way BASs tab sounds Really good

0 reply
tcx 10 Sep 26, 2006 11:04 AM

hey dude how is it going!

sorry to bother Just wanted to know if you ever tabbed any songs from terror

am looking for the overcome tab of terror if you now of any body that might have let me know please

hope you can help Thank you and see you around

by the way BASs tab sounds Really good

guest
Wanna post a correction for this tab? Suggest correction