Oops, an error
Loading. Please wait.

Diamond Blue tab

version 1
version 1

Whole song

Interactive

200 views 1 this week
no commentswrite comment
1 2 3 4 5
3 more votes to show rating
add to favorites
×
Save as Personal and add changes to this tab that will be seen only by you. Learn more ›
×
You can save this tab as Personal to edit and correct it or add notes. All changes will be seen only by you. Learn more »
launch autoscroll
font size
0
reset
how to read this tab
guitar tuner
edit
Autoscroll
slow
fast
+/-
esc
set tempo
stop
#----------------------------------PLEASE NOTE---------------------------------#
#This file is the author's own work and represents their interpretation of the #
#song. You may only use this file for private study, scholarship, or research. #
#------------------------------------------------------------------------------##

                                  DIAMOND BLUE
                           As recorded by Terry Brock
                       (From the 2010 Album DIAMOND BLUE)

Transcribed by Axeman72

Gtr I (D A D G B E) - 'Guitar 1'
Gtr II (D A D G B E) - 'Guitar 2'
Gtr III (D A D G B E) - 'Guitar 3'
Gtr IV (D A D G B E) - 'Guitar 4'

 4/4
  Gtr I
   Q.      E  +H          Q.     E +H
|-----------------------|--------------------|
|-10------10-(10)-------|--------------------|
|-----------------------|-9------9-(9)-------|
|-----------------------|--------------------|
|-----------------------|--------------------|
|-----------------------|--------------------|
|
| Gtr II
|  E  E E  E   E  E E E   E  E E E  E  E E E
|-----------------------|--------------------|
|--3--3-3--3---3--3-3-3-|-5--5-5-5--5--5-5-5-|
|--2--2-2--2---2--2-2-2-|-2--2-2-2--2--2-2-2-|
|-----------------------|--------------------|
|-----------------------|--------------------|
|-----------------------|--------------------|
|
| Gtr III
|     PM|      PM-|   PM     PM|    PM-|   PM
|  E  E E  E   E  E E E   E  E E E  E  E E E
|-----------------------|--------------------|
|--3-------3--------3---|--------------------|
|--2-------2--------2---|-2------2-------2---|
|--0--0-0--0---0--0-0-0-|-2------2-------2---|
|-----------------------|-0--0-0-0--0--0-0-0-|
|-----------------------|--------------------|


  Q.     Q.     Q     +E  Q.      Q   Q
|-------------------|---------------------|
|-8------7------8---|-(8)-8------10---8---|
|-------------------|---------------------|
|-------------------|---------------------|
|-------------------|---------------------|
|-------------------|---------------------|
|
| E  E E E  E E E E    E  E  E E  E E E E
|-------------------|---------------------|
|-3--3-3-3--3-3-3-3-|--3--3--3-3--3-3-3-3-|
|-0--0-0-0--0-0-0-0-|--0--0--0-0--0-0-0-0-|
|-------------------|---------------------|
|-------------------|---------------------|
|-------------------|---------------------|
|
|    PM|    PM|   PM      PM-|    PM|   PM
| E  E E E  E E E E    E  E  E E  E E E E
|-------------------|---------------------|
|-------------------|---------------------|
|-0------0------0---|--0-------0------0---|
|-0------0------0---|--0-------0------0---|
|-------------------|---------------------|
|-5--5-5-5--5-5-5-5-|--5--5--5-5--5-5-5-5-|


 4/4
  Gtr I
   Q.      E  +H          Q.     E +H
|-----------------------|--------------------|
|-10------10-(10)-------|--------------------|
|-----------------------|-9------9-(9)-------|
|-----------------------|--------------------|
|-----------------------|--------------------|
|-----------------------|--------------------|
|
| Gtr II
|  E  E E  E   E  E E E   E  E E E  E  E E E
|-----------------------|--------------------|
|--3--3-3--3---3--3-3-3-|-5--5-5-5--5--5-5-5-|
|--2--2-2--2---2--2-2-2-|-2--2-2-2--2--2-2-2-|
|-----------------------|--------------------|
|-----------------------|--------------------|
|-----------------------|--------------------|
|
| Gtr III
|     PM|      PM-|   PM     PM|    PM-|   PM
|  E  E E  E   E  E E E   E  E E E  E  E E E
|-----------------------|--------------------|
|--3-------3--------3---|--------------------|
|--2-------2--------2---|-2------2-------2---|
|--0--0-0--0---0--0-0-0-|-2------2-------2---|
|-----------------------|-0--0-0-0--0--0-0-0-|
|-----------------------|--------------------|


  Q.     Q.     Q     +E  Q.     Q   Q
|-------------------|--------------------|
|-8------7------8---|-(8)-8------7---8---|
|-------------------|--------------------|
|-------------------|--------------------|
|-------------------|--------------------|
|-------------------|--------------------|
|
| E  E E E  E E E E    E  E  E E E E E E
|-------------------|--------------------|
|-3--3-3-3--3-3-3-3-|--3--3--3-3-3-3-3-3-|
|-0--0-0-0--0-0-0-0-|--0--0--0-0-0-0-0-0-|
|-------------------|--------------------|
|-------------------|--------------------|
|-------------------|--------------------|
|
|    PM|    PM|   PM      PM-|   PM|   PM
| E  E E E  E E E E    E  E  E E E E E E
|-------------------|--------------------|
|-------------------|--------------------|
|-0------0------0---|--0-------0-----0---|
|-0------0------0---|--0-------0-----0---|
|-------------------|--------------------|
|-5--5-5-5--5-5-5-5-|--5--5--5-5-5-5-5-5-|


  Gtr II
  E E E E E E E E   E E E E  E E E E   E E E E E E E E   E E E E E E E E
|-----------------|------------------|-----------------|------------------|
|-----------------|------------------|-----------------|------------------|
|---7---8-5---7---|---7---5S10---9---|---7---8-5---7---|---7--------------|
|---7---8-5---7---|---7---5S10---9---|---7---8-5---7---|---7--------------|
|-----------------|------------------|-----------------|------------------|
|-0-------------0-|----------------0-|---------------0-|-------0-3-3-5-0--|
|
| Gtr III
| E E E E E E E E   E E E E  E E E E   E E E E E E E E   E E E E E E E E
|-----------------|------------------|-----------------|------------------|
|-----------------|------------------|-----------------|------------------|
|-----------------|------------------|-----------------|------------------|
|-----------------|------------------|-----------------|------------------|
|---5---6-3---5---|---5---3S=8---7---|---5---6-3---5---|---5-----3-3-5-0--|
|-0-7---8-5---7-0-|---7---5S10---9-0-|---7---8-5---7-0-|---7---0-3-3-5-0--|


   Verse
    Gtr II
    E E E E E E E E   E E E E  E E E E   E E E E E E E E   E Q    E E E E E
||------------------|------------------|-----------------|------------------|
||o-----------------|------------------|-----------------|------------------|
||----7---8-5---7---|---7---5S10---9---|---7---8-5---7---|---7\-------------|
||----7---8-5---7---|---7---5S10---9---|---7---8-5---7---|---7\-------------|
||o-----------------|------------------|-----------------|------------------|
||----------------0-|----------------0-|---------------0-|--------3-3-5-5-5-|
|
|   Gtr III
|   E E E E E E E E   E E E E  E E E E   E E E E E E E E   E E  E E E E E E
||------------------|------------------|-----------------|------------------|
||o-----------------|------------------|-----------------|------------------|
||------------------|------------------|-----------------|------------------|
||------------------|------------------|-----------------|------------------|
||o---5---6-3---5---|---5---3S=8---7---|---5---6-3---5---|---5----3-3-5-5-5-|
||----7---8-5---7-0-|---7---5S10---9-0-|---7---8-5---7-0-|---7----3-3-5-5-5-|


  Gtrs II, III
    PM|   PM|         PM|   PM|         PM|   PM|         PM|   PM|
  E E E E E E E E   E E E E E E E E   E E E E E E E E   E E E E E E E E
|-----------------|-----------------|-----------------|------------------|
|-----------------|-----------------|-----------------|------------------|
|-----------------|-3-----3---------|-----------------|------------------|
|-0-----0-----2-3-|-3-----3-----2-3-|-5-----5---------|-5-----5----------|
|-0-----0---------|-1-1-1-1-1-1-----|-5-----5-----7-8-|-5-----5-----7-8--|
|-0-0-0-0-0-0-----|-----------------|-5-5-5-5-5-5-----|-5-5-5-5-5-5------|


    PM|   PM|         PM|   PM|         PM|   PM|         PM|   PM
                                                                    |-3-|
  E E E E E E E E   E E E E E E E E   E E E E E E E E   E E E E E E S S S E
|-----------------|-----------------|-----------------|----------------------|
|-----------------|-----------------|-----------------|----------------------|
|-----------------|-3-----3---------|-5-----5---------|----------------------|
|-0-----0-----2-3-|-3-----3-----2-3-|-5-----5-----2-3-|-5-----5--------------|
|-0-----0---------|-1-1-1-1-1-1-----|-3-3-3-3-3-3-----|-5-----5---8-7-8-7-5--|
|-0-0-0-0-0-0-----|-----------------|-----------------|-5-5-5-5-5------------|


    PM|   PM|         PM|   PM|         PM|   PM|         PM|   PM|
  E E E E E E E E   E E E E E E E E   E E E E E E E E   E E E E E E E E
|-----------------|-----------------|-----------------|------------------|
|-----------------|-----------------|-----------------|------------------|
|-----------------|-3-----3---------|-----------------|------------------|
|-0-----0-----2-3-|-3-----3-----2-3-|-5-----5---------|-5-----5----------|
|-0-----0---------|-1-1-1-1-1-1-----|-5-----5-----7-8-|-5-----5-----7-8--|
|-0-0-0-0-0-0-----|-----------------|-5-5-5-5-5-5-----|-5-5-5-5-5-5------|


  Gtr II
  E E E E E E E E   E E E E E E E E   E E E E E E E E   E E E E E E E E
|-----------------|-----------------|-----------------|------------------|
|-4---4---4---4---|-6---6---6---6---|-6---6---6---6---|-6---6---8---6----|
|---3---3---3---3-|---3---3---3---3-|---5---5---5---5-|---5---5---5---5--|
|-----------------|-----------------|-----------------|------------------|
|-----------------|-----------------|-----------------|------------------|
|-----------------|-----------------|-----------------|------------------|
|
| Gtr III
|   PM|   PM|   PM    PM|   PM|   PM    PM|   PM|   PM    PM|   PM|   PM
| E E E E E E E E   E E E E E E E E   E E E E E E E E   E E E E E E E E
|-----------------|-----------------|-----------------|------------------|
|-----------------|-----------------|-----------------|------------------|
|-8-----8-----8---|-3-----3-----3---|-----------------|------------------|
|-8-----8-----8---|-3-----3-----3---|-3-----3-----3---|-3-----3-----3----|
|-6-6-6-6-6-6-6-6-|-1-1-1-1-1-1-1-1-|-3-----3-----3---|-3-----3-----3----|
|-----------------|-----------------|-3-3-3-3-3-3-3-3-|-3-3-3-3-3-3-3-3--|


  E E E E E E E E   E E E E E E E E   E E E E E E E E   E E E E E  E  E E
|-----------------|-----------------|-----------------|--------------------|
|-4---4---4---4---|-3---3---3---3---|-6---6---6---6---|-6---6---6-----6----|
|---3---3---3---3-|---0---0---0---0-|---5---5---5---5-|---5---5----5----5--|
|-----------------|-----------------|-----------------|--------------------|
|-----------------|-----------------|-----------------|--------------------|
|-----------------|-----------------|-----------------|--------------------|
|
|   PM|   PM|   PM      PM  PM|         PM|   PM|   PM    PM|
| E E E E E E E E   E E E E E E E E   E E E E E E E E   E E E E E  E  E E
|-----------------|-----------------|-----------------|--------------------|
|-----------------|-----------------|-----------------|--------------------|
|-8-----8-----8---|-----------------|-----------------|--------------------|
|-8-----8-----8---|-5-----5-----5-3-|-3-----3-----3---|-3-3-3-8-8-10-10----|
|-6-6-6-6-6-6-6-6-|-5-----5-----5-3-|-3-----3-----3---|-3-3-3-8-8-10-10-8--|
|-----------------|-5-5-5-5-5-5-5-3-|-3-3-3-3-3-3-3-3-|-3-3-3-8-8-10-10----|


 Chorus
 4/4
  Gtr I
   Q.      E  +H          Q.     E +H
|-----------------------|--------------------|
|-10------10-(10)-------|--------------------|
|-----------------------|-9------9-(9)-------|
|-----------------------|--------------------|
|-----------------------|--------------------|
|-----------------------|--------------------|
|
| Gtr II
|  E  E E  E   E  E E E   E  E E E  E  E E E
|-----------------------|--------------------|
|--3--3-3--3---3--3-3-3-|-5--5-5-5--5--5-5-5-|
|--2--2-2--2---2--2-2-2-|-2--2-2-2--2--2-2-2-|
|-----------------------|--------------------|
|-----------------------|--------------------|
|-----------------------|--------------------|
|
| Gtr III
|     PM|      PM-|   PM     PM|    PM-|   PM
|  E  E E  E   E  E E E   E  E E E  E  E E E
|-----------------------|--------------------|
|--3-------3--------3---|--------------------|
|--2-------2--------2---|-2------2-------2---|
|--0--0-0--0---0--0-0-0-|-2------2-------2---|
|-----------------------|-0--0-0-0--0--0-0-0-|
|-----------------------|--------------------|


  Q.     Q.     Q     +E  Q.      Q   Q
|-------------------|---------------------|
|-8------7------8---|-(8)-8------10---8---|
|-------------------|---------------------|
|-------------------|---------------------|
|-------------------|---------------------|
|-------------------|---------------------|
|
| E  E E E  E E E E    E  E  E E  E E E E
|-------------------|---------------------|
|-3--3-3-3--3-3-3-3-|--3--3--3-3--3-3-3-3-|
|-0--0-0-0--0-0-0-0-|--0--0--0-0--0-0-0-0-|
|-------------------|---------------------|
|-------------------|---------------------|
|-------------------|---------------------|
|
|    PM|    PM|   PM      PM-|    PM|   PM
| E  E E E  E E E E    E  E  E E  E E E E
|-------------------|---------------------|
|-------------------|---------------------|
|-0------0------0---|--0-------0------0---|
|-0------0------0---|--0-------0------0---|
|-------------------|---------------------|
|-5--5-5-5--5-5-5-5-|--5--5--5-5--5-5-5-5-|


 4/4
  Gtr I
   Q.      E  +H          Q.     E +H
|-----------------------|--------------------|
|-10------10-(10)-------|--------------------|
|-----------------------|-9------9-(9)-------|
|-----------------------|--------------------|
|-----------------------|--------------------|
|-----------------------|--------------------|
|
| Gtr II
|  E  E E  E   E  E E E   E  E E E  E  E E E
|-----------------------|--------------------|
|--3--3-3--3---3--3-3-3-|-5--5-5-5--5--5-5-5-|
|--2--2-2--2---2--2-2-2-|-2--2-2-2--2--2-2-2-|
|-----------------------|--------------------|
|-----------------------|--------------------|
|-----------------------|--------------------|
|
| Gtr III
|     PM|      PM-|   PM     PM|    PM-|   PM
|  E  E E  E   E  E E E   E  E E E  E  E E E
|-----------------------|--------------------|
|--3-------3--------3---|--------------------|
|--2-------2--------2---|-2------2-------2---|
|--0--0-0--0---0--0-0-0-|-2------2-------2---|
|-----------------------|-0--0-0-0--0--0-0-0-|
|-----------------------|--------------------|


  Q.     Q.     Q     +E  Q.     Q   Q
|-------------------|--------------------|
|-8------7------8---|-(8)-8------7---8---|
|-------------------|--------------------|
|-------------------|--------------------|
|-------------------|--------------------|
|-------------------|--------------------|
|
| E  E E E  E E E E    E  E  E E E E E E
|-------------------|--------------------|
|-3--3-3-3--3-3-3-3-|--3--3--3-3-3-3-3-3-|
|-0--0-0-0--0-0-0-0-|--0--0--0-0-0-0-0-0-|
|-------------------|--------------------|
|-------------------|--------------------|
|-------------------|--------------------|
|
|    PM|    PM|   PM      PM-|   PM|   PM
| E  E E E  E E E E    E  E  E E E E E E
|-------------------|--------------------|
|-------------------|--------------------|
|-0------0------0---|--0-------0-----0---|
|-0------0------0---|--0-------0-----0---|
|-------------------|--------------------|
|-5--5-5-5--5-5-5-5-|--5--5--5-5-5-5-5-5-|


 4/4
  Gtr I
   Q.      E  +H          Q.     E +H
|-----------------------|--------------------|
|-10------10-(10)-------|--------------------|
|-----------------------|-9------9-(9)-------|
|-----------------------|--------------------|
|-----------------------|--------------------|
|-----------------------|--------------------|
|
| Gtr II
|  E  E E  E   E  E E E   E  E E E  E  E E E
|-----------------------|--------------------|
|--3--3-3--3---3--3-3-3-|-5--5-5-5--5--5-5-5-|
|--2--2-2--2---2--2-2-2-|-2--2-2-2--2--2-2-2-|
|-----------------------|--------------------|
|-----------------------|--------------------|
|-----------------------|--------------------|
|
| Gtr III
|     PM|      PM-|   PM     PM|    PM-|   PM
|  E  E E  E   E  E E E   E  E E E  E  E E E
|-----------------------|--------------------|
|--3-------3--------3---|--------------------|
|--2-------2--------2---|-2------2-------2---|
|--0--0-0--0---0--0-0-0-|-2------2-------2---|
|-----------------------|-0--0-0-0--0--0-0-0-|
|-----------------------|--------------------|


  Q.     Q.     Q     +E  Q.     Q   E E
|-------------------|------------------5-|
|-8------7------8---|-(8)-8------7---8---|
|-------------------|--------------------|
|-------------------|--------------------|
|-------------------|--------------------|
|-------------------|--------------------|
|
| E  E E E  E E E E    E  E  E E E E E E
|-------------------|--------------------|
|-3--3-3-3--3-3-3-3-|--3--3--3-3-3-3-3-3-|
|-0--0-0-0--0-0-0-0-|--0--0--0-0-0-0-0-0-|
|-------------------|--------------------|
|-------------------|--------------------|
|-------------------|--------------------|
|
|    PM|    PM|   PM      PM-|   PM|   PM
| E  E E E  E E E E    E  E  E E E E E E
|-------------------|--------------------|
|-------------------|--------------------|
|-0------0------0---|--0-------0-----0---|
|-0------0------0---|--0-------0-----0---|
|-------------------|--------------------|
|-5--5-5-5--5-5-5-5-|--5--5--5-5-5-5-5-5-|


  1.
  Gtr II
    PM  PM  PM  PM    PM  PM  PM
  E E E E E E E E   E E E E E E E E
|-6---5---6---5---|-8---6---5---3-3\--||-|
|---3---3---3---3-|---5---5---5------o||-|
|-----------------|-------------------||-|
|-----------------|-------------------||-|
|-----------------|------------------o||-|
|-----------------|-------------------||-|
|
| Gtr III
| E E E E E E E E   E E E E E E E E
|-----------------|-------------------||-|
|-----------------|------------------o||-|
|-----------------|-------------------||-|
|-----------------|-------------------||-|
|-1-1-1-1-1-1-1-1-|-3-3-3-3-3-3-3-3--o||-|
|-----------------|-------------------||-|


   Bridge
    2.
    W                    W
||--------------------|------------------------|
||o-------------------|------------------------|
||--------------------|------------------------|
||--------------------|------------------------|
||o-------------------|------------------------|
||--------------------|------------------------|
|
|   Gtr IV
|   Q  E E +E  E +Q     +E  E +E  E +E  E +Q
||--------------------|------------------------|
||o-------------------|------------------------|
||-------2-(2)-3-(3)--|-(3)-------2-(2)-3-(3)--|
||-----3--------------|-----3-(3)--------------|
||o-1-----------------|------------------------|
||--------------------|------------------------|


  Gtr IV
  Q  E E +E  E +E  E   +E  E +E  E +E  E +E  E   Q  E E +E  E +E  E
|--------------------|-------------------------|--------------------|
|--------------------|-------------------------|--------------------|
|------2-(2)-3-(3)---|-----------2-(2)-3-(3)-2-|------3-(3)-2-(2)---|
|----3---------------|-----3-(3)---------------|----3---------------|
|--------------------|-------------------------|--------------------|
|-1----------------3-|-(3)---------------------|-5----------------5-|


  +E  E +E  E +E  E +E  E   Q  E E +E  E +E  E   +E  E +E  E +E  E +E  E
|-------------------------|--------------------|--------------------------||
|-------------------------|--------------------|-------------------------o||
|-----------3-(3)-2-(2)-3-|------2-(2)-3-(3)---|-----------3-(3)-2-(2)-3--||
|-----3-(3)---------------|----3---------------|-----3-(3)----------------||
|-------------------------|--------------------|-------------------------o||
|-(5)---------------------|-1----------------3-|-(3)----------------------||


  Gtr I
   /   |                                               /
   E  +Q     E  +H           E     +Q     E  +Q     E  E
|-------------------------|------------------------------|
|-11-(11)-----------------|-11b13-(11)---11-(11)---10----|
|-------------------------|---------------------------12-|
|-----------13-(13)-------|------------------------------|
|-------------------------|------------------------------|
|-------------------------|------------------------------|
|
| Gtr III
|      PM-|      PM-|   PM          PM-|      PM-|     PM
|  E   E  E  E   E  E E E    E      E  E  E   E  E  E  E
|-------------------------|------------------------------|
|-------------------------|------------------------------|
|-------------------------|------------------------------|
|--1---------1--------1---|--1------------1---------1----|
|--1---------1--------1---|--1------------1---------1----|
|--1---1--1--1---1--1-1-1-|--1------1--1--1---1--1--1--1-|


    |        /   |
   +E   Q    E  +S   S  S  S  S      +S   +S   S    S  S  S  S  S  S  S  S  S  S  S  S  S  S  S  S
|------------------------------------------------|-------------------------10--------------------|
|-------------------------10-11b13==(11)r(11)----|-------10-11-13-11-10-------11-10--------------|
|-(12)-12--------------12------------------------|----12----------------12----------12-----------|
|-------------------12---------------------------|-12----------------------------------12--------|
|-----------10-(10)---------------------------10-|----------------------------------------12-10--|
|------------------------------------------------|---------------------------------------------12|
|
|       PM|      PM----|                   PM             PM---|            PM---|            PM
|   E   E E  E   E      E     E            E        E     E     E     E     E     E     E     E
|------------------------------------------------|-----------------------------------------------|
|------------------------------------------------|-----------------------------------------------|
|------------------------------------------------|-----------------------------------------------|
|---5--------5----------------5------------------|--5-----------------5-----------------5--------|
|---5--------5----------------5------------------|--5-----------------5-----------------5--------|
|---5---5-5--5---5------5-----5------------5-----|--5-----5-----5-----5-----5-----5-----5-----5--|


   ~~~
                                                           |--3--|
   Q.     E     +E  +E  E T T T T    E  S     S  S     S   S  S  S  E  E  E  E
|---------------------------------|--------------------------------------------|
|---------------------------------|--------------------------------10-11-------|
|---------8b10==(8)-(8)r8-7---7-8s|=12-12b14r12-12b14r12\-------12-------12----|
|---------------------------8-----|--------------------------12-------------12-|
|---------------------------------|-----------------------10-------------------|
|-13------------------------------|--------------------------------------------|
|
|     PM|        PM-|     PM            PM------|                   PM|      PM
|  E  E E E      E   E  E E          E  E        E         E        E  E  E  E
|---------------------------------|--------------------------------------------|
|---------------------------------|--------------------------------------------|
|---------------------------------|--------------------------------------------|
|--1------1-------------1---------|--1---------------------1--------------1----|
|--1------1-------------1---------|--1---------------------1--------------1----|
|--1--1-1-1------1---1--1-1-------|--1--1--------1---------1--------1--1--1--1-|


                                                ~~~
   Q.        Q    Q     E        +Q.       Q    Q.
|----------------------13b15==|=(13)r-----17---18-------|
|-11b13-----11----------------|-------------------------|
|-----------------------------|-------------------------|
|----------------<7>----------|-------------------------|
|-----------------------------|-------------------------|
|-----------------------------|-------------------------|
|
|       PM|    PM|      PM            PM|    PM|     PM
|  E    E E  E E  E  E  E         E   E E  E E  E  E E
|-----------------------------|-------------------------|
|-----------------------------|-------------------------|
|-----------------------------|-------------------------|
|--5---------5-------5--------|---3--------3-------3----|
|--5---------5-------5--------|---3--------3-------3----|
|--5----5-5--5-5--5--5--5-----|---3---3-3--3-3--3--3-3--|


  Gtr I
           PM                ~~~~    PM
   Q.      E  E  E  E  E    +Q.      E  E  E  E  E
|-11---------11-13-11-10-|-(10)--------10-11-10--8-|
|------------------------|-------------------------|
|---------12-------------|----------10-------------|
|------------------------|-------------------------|
|------------------------|-------------------------|
|------------------------|-------------------------|
|
| Gtr II
|          PM                ~~~~    PM
|  Q.      E  E  E  E  E    +Q.      E  E  E  E  E
|------------------------|-------------------------|
|-11---------11-13-11-11-|-(11)--------11-13-11-10-|
|------------------------|-------------------------|
|---------13-------------|----------12-------------|
|------------------------|-------------------------|
|------------------------|-------------------------|
|
| Gtr III
|     PM|     PM|      PM       PM|     PM|      PM
|  E  E E  E  E  E  E  E     E  E E  E  E  E  E  E
|------------------------|-------------------------|
|------------------------|-------------------------|
|--8-------8--------8----|---3-------3--------3----|
|--8-------8--------8----|---3-------3--------3----|
|--6--6-6--6--6--6--6--6-|---1--1-1--1--1--1--1--1-|
|------------------------|-------------------------|


    ~~~~
   +Q.       E  E  E  Q      +E   Q    E  +H
|--(8)----------8-10--8---|--(8)-10---13-(13)--------|
|-----------11------------|--------------------------|
|-------------------------|--------------------------|
|-------------------------|--------------------------|
|-------------------------|--------------------------|
|-------------------------|--------------------------|
|
|   ~~~~
|  +Q.       E  E  E  Q      +E   Q    E  +H
|-------------------------|--------------------------|
|-(10)---------10-11-10---|-(10)-11---13-(13)--------|
|----------/10------------|--------------------------|
|-------------------------|--------------------------|
|-------------------------|--------------------------|
|-------------------------|--------------------------|
|
|      PM|      PM|     PM        PM|      PM-|   PM
|   E  E E   E  E  E  E E     E   E E  E   E  E E E
|-------------------------|--------------------------|
|-------------------------|--------------------------|
|-------------------------|--------------------------|
|---3--------3--------3---|---3--------3--------3----|
|---3--------3--------3---|---3--------3--------3----|
|---3--3-3---3--3--3--3-3-|---3---3-3--3---3--3-3-3--|


           PM                ~~~~
   Q.      E  E  E  E  E    +Q.       E  E  E  E  E
|-11---------11-13-11-10-|-(10)---------13-15-13-15b17==|
|------------------------|----------/15-----------------|
|---------12-------------|------------------------------|
|------------------------|------------------------------|
|------------------------|------------------------------|
|------------------------|------------------------------|
|
|          PM                ~~~~
|  Q.      E  E  E  E  E    +Q.       E  E  E  E  E
|------------------------|------------------------------|
|-11---------11-13-11-11-|-(11)-----/11-11-13-11-17b18==|
|------------------------|------------------------------|
|---------13-------------|------------------------------|
|------------------------|------------------------------|
|------------------------|------------------------------|
|
|     PM|     PM|      PM         PM     PM|
|  E  E E  E  E  E  E  E     E  E E   E  E  E  E  E
|------------------------|------------------------------|
|------------------------|------------------------------|
|--8-------8--------8----|------------------------------|
|--8-------8--------8----|---5--------5--------5--3-----|
|--6--6-6--6--6--6--6--6-|---5--------5--------5--3-----|
|------------------------|---5--5-5---5--5--5--5--3-----|


    ~~~~
   +H.            +E    E        +E    S  S  S  S  S  S  E  E  E  E
|-(15)-----------(15)r-17b18==|=(17)r-18-15--------------------------|
|-----------------------------|-------------18-15--------------------|
|-----------------------------|-------------------17-14-15-10s17-12s=|
|-----------------------------|--------------------------------------|
|-----------------------------|--------------------------------------|
|-----------------------------|--------------------------------------|
|
|  +H.            +E    E         E    S  S  S  S  S  S  E  E  E  E
|-----------------------------|--------------------------------------|
|-(17)-----------(17)r-18b20==|==18r--17-15--------------------------|
|-----------------------------|-------------17-15-------15-10s17-12/-|
|-----------------------------|-------------------17-15--------------|
|-----------------------------|--------------------------------------|
|-----------------------------|--------------------------------------|
|
|      PM|   PM|        PM             PM---|
|   E  E E E E E   E    E         E    E     E     E     E  E  E  E
|-----------------------------|--------------------------------------|
|-----------------------------|--------------------------------------|
|-----------------------------|--------------------------------------|
|---3------3-------3----------|---3----3-----3-----8-----8-10-10-----|
|---3------3-------3----------|---3----3-----3-----8-----8-10-10--8--|
|---3--3-3-3-3-3---3----3-----|---3----3-----3-----8-----8-10-10-----|


 4/4
  Gtr I
   ~~
   W                 Q.     E +H
|------------------|--------------------|
|------------------|--------------------|
|-19---------------|-9------9-(9)-------|
|------------------|--------------------|
|------------------|--------------------|
|------------------|--------------------|
|
| Gtr II
|  E E E E E E E E   E  E E E  E  E E E
|------------------|--------------------|
|--3-3-3-3-3-3-3-3-|-5--5-5-5--5--5-5-5-|
|--2-2-2-2-2-2-2-2-|-2--2-2-2--2--2-2-2-|
|------------------|--------------------|
|------------------|--------------------|
|------------------|--------------------|
|
| Gtr III
|    PM|   PM|   PM     PM|    PM-|   PM
|  E E E E E E E E   E  E E E  E  E E E
|------------------|--------------------|
|--3-----3-----3---|--------------------|
|--2-----2-----2---|-2------2-------2---|
|--0-0-0-0-0-0-0-0-|-2------2-------2---|
|------------------|-0--0-0-0--0--0-0-0-|
|------------------|--------------------|


  Q.     Q.     Q     +E  Q.      Q   Q
|-------------------|---------------------|
|-8------7------8---|-(8)-8------10---8---|
|-------------------|---------------------|
|-------------------|---------------------|
|-------------------|---------------------|
|-------------------|---------------------|
|
| E  E E E  E E E E    E  E  E E  E E E E
|-------------------|---------------------|
|-3--3-3-3--3-3-3-3-|--3--3--3-3--3-3-3-3-|
|-0--0-0-0--0-0-0-0-|--0--0--0-0--0-0-0-0-|
|-------------------|---------------------|
|-------------------|---------------------|
|-------------------|---------------------|
|
|    PM|    PM|   PM      PM-|    PM|   PM
| E  E E E  E E E E    E  E  E E  E E E E
|-------------------|---------------------|
|-------------------|---------------------|
|-0------0------0---|--0-------0------0---|
|-0------0------0---|--0-------0------0---|
|-------------------|---------------------|
|-5--5-5-5--5-5-5-5-|--5--5--5-5--5-5-5-5-|


 4/4
  Gtr I
   Q.      E  +H          Q.     E +H
|-----------------------|--------------------|
|-10------10-(10)-------|--------------------|
|-----------------------|-9------9-(9)-------|
|-----------------------|--------------------|
|-----------------------|--------------------|
|-----------------------|--------------------|
|
| Gtr II
|  E  E E  E   E  E E E   E  E E E  E  E E E
|-----------------------|--------------------|
|--3--3-3--3---3--3-3-3-|-5--5-5-5--5--5-5-5-|
|--2--2-2--2---2--2-2-2-|-2--2-2-2--2--2-2-2-|
|-----------------------|--------------------|
|-----------------------|--------------------|
|-----------------------|--------------------|
|
| Gtr III
|     PM|      PM-|   PM     PM|    PM-|   PM
|  E  E E  E   E  E E E   E  E E E  E  E E E
|-----------------------|--------------------|
|--3-------3--------3---|--------------------|
|--2-------2--------2---|-2------2-------2---|
|--0--0-0--0---0--0-0-0-|-2------2-------2---|
|-----------------------|-0--0-0-0--0--0-0-0-|
|-----------------------|--------------------|


  Q.     Q.     Q     +E  Q.     Q   Q
|-------------------|--------------------|
|-8------7------8---|-(8)-8------7---8---|
|-------------------|--------------------|
|-------------------|--------------------|
|-------------------|--------------------|
|-------------------|--------------------|
|
| E  E E E  E E E E    E  E  E E E E E E
|-------------------|--------------------|
|-3--3-3-3--3-3-3-3-|--3--3--3-3-3-3-3-3-|
|-0--0-0-0--0-0-0-0-|--0--0--0-0-0-0-0-0-|
|-------------------|--------------------|
|-------------------|--------------------|
|-------------------|--------------------|
|
|    PM|    PM|   PM      PM-|   PM|   PM
| E  E E E  E E E E    E  E  E E E E E E
|-------------------|--------------------|
|-------------------|--------------------|
|-0------0------0---|--0-------0-----0---|
|-0------0------0---|--0-------0-----0---|
|-------------------|--------------------|
|-5--5-5-5--5-5-5-5-|--5--5--5-5-5-5-5-5-|


 4/4
  Gtr I
   Q.      E  +H          Q.     E +H
|-----------------------|--------------------|
|-10------10-(10)-------|--------------------|
|-----------------------|-9------9-(9)-------|
|-----------------------|--------------------|
|-----------------------|--------------------|
|-----------------------|--------------------|
|
| Gtr II
|  E  E E  E   E  E E E   E  E E E  E  E E E
|-----------------------|--------------------|
|--3--3-3--3---3--3-3-3-|-5--5-5-5--5--5-5-5-|
|--2--2-2--2---2--2-2-2-|-2--2-2-2--2--2-2-2-|
|-----------------------|--------------------|
|-----------------------|--------------------|
|-----------------------|--------------------|
|
| Gtr III
|     PM|      PM-|   PM     PM|    PM-|   PM
|  E  E E  E   E  E E E   E  E E E  E  E E E
|-----------------------|--------------------|
|--3-------3--------3---|--------------------|
|--2-------2--------2---|-2------2-------2---|
|--0--0-0--0---0--0-0-0-|-2------2-------2---|
|-----------------------|-0--0-0-0--0--0-0-0-|
|-----------------------|--------------------|


  Q.     Q.     Q     +E  Q.     Q   E E
|-------------------|------------------5-|
|-8------7------8---|-(8)-8------7---8---|
|-------------------|--------------------|
|-------------------|--------------------|
|-------------------|--------------------|
|-------------------|--------------------|
|
| E  E E E  E E E E    E  E  E E E E E E
|-------------------|--------------------|
|-3--3-3-3--3-3-3-3-|--3--3--3-3-3-3-3-3-|
|-0--0-0-0--0-0-0-0-|--0--0--0-0-0-0-0-0-|
|-------------------|--------------------|
|-------------------|--------------------|
|-------------------|--------------------|
|
|    PM|    PM|   PM      PM-|   PM|   PM
| E  E E E  E E E E    E  E  E E E E E E
|-------------------|--------------------|
|-------------------|--------------------|
|-0------0------0---|--0-------0-----0---|
|-0------0------0---|--0-------0-----0---|
|-------------------|--------------------|
|-5--5-5-5--5-5-5-5-|--5--5--5-5-5-5-5-5-|


 4/4
  Gtr I
   Q.      E  +H          Q.     E +H
|-----------------------|--------------------|
|-10------10-(10)-------|--------------------|
|-----------------------|-9------9-(9)-------|
|-----------------------|--------------------|
|-----------------------|--------------------|
|-----------------------|--------------------|
|
| Gtr II
|  E  E E  E   E  E E E   E  E E E  E  E E E
|-----------------------|--------------------|
|--3--3-3--3---3--3-3-3-|-5--5-5-5--5--5-5-5-|
|--2--2-2--2---2--2-2-2-|-2--2-2-2--2--2-2-2-|
|-----------------------|--------------------|
|-----------------------|--------------------|
|-----------------------|--------------------|
|
| Gtr III
|     PM|      PM-|   PM     PM|    PM-|   PM
|  E  E E  E   E  E E E   E  E E E  E  E E E
|-----------------------|--------------------|
|--3-------3--------3---|--------------------|
|--2-------2--------2---|-2------2-------2---|
|--0--0-0--0---0--0-0-0-|-2------2-------2---|
|-----------------------|-0--0-0-0--0--0-0-0-|
|-----------------------|--------------------|


  Q.     Q.     Q     +E  Q.      Q   Q
|-------------------|---------------------|
|-8------7------8---|-(8)-8------10---8---|
|-------------------|---------------------|
|-------------------|---------------------|
|-------------------|---------------------|
|-------------------|---------------------|
|
| E  E E E  E E E E    E  E  E E  E E E E
|-------------------|---------------------|
|-3--3-3-3--3-3-3-3-|--3--3--3-3--3-3-3-3-|
|-0--0-0-0--0-0-0-0-|--0--0--0-0--0-0-0-0-|
|-------------------|---------------------|
|-------------------|---------------------|
|-------------------|---------------------|
|
|    PM|    PM|   PM      PM-|    PM|   PM
| E  E E E  E E E E    E  E  E E  E E E E
|-------------------|---------------------|
|-------------------|---------------------|
|-0------0------0---|--0-------0------0---|
|-0------0------0---|--0-------0------0---|
|-------------------|---------------------|
|-5--5-5-5--5-5-5-5-|--5--5--5-5--5-5-5-5-|


 4/4
  Gtr I
      PM|               ~~~
  Q   S S E  E E E E   +Q    E E E E      E  +E
|--------------------|---------------------------|
|--------------------|-------------------10------|
|------------------7-|-(7)-------7-9b11==(9)r(9)-|
|--------------7-9---|-------7-9-----------------|
|---------5-/9-------|---------------------------|
|-----7-9------------|---------------------------|
|
| Gtr II
| E E E   E  E E E E    E  E E E E E      E   E
|--------------------|---------------------------|
|-3-3-3---3--3-3-3-3-|--5--5-5-5-5-5------5---5--|
|-2-2-2---2--2-2-2-2-|--2--2-2-2-2-2------2---2--|
|--------------------|---------------------------|
|--------------------|---------------------------|
|--------------------|---------------------------|
|
| Gtr III
|   PM|      PM|   PM      PM|   PM|          PM
| E E E   E  E E E E    E  E E E E E      E   E
|--------------------|---------------------------|
|-3-------3------3---|---------------------------|
|-2-------2------2---|--2------2----------2------|
|-0-0-0---0--0-0-0-0-|--2------2----------2------|
|--------------------|--0--0-0-0-0-0------0---0--|
|--------------------|---------------------------|


  Q   E E Q   E E   E e    E E e    S S E S  S
|-----------------|-----------------------------|
|-----------------|-----------------------------|
|-9---7---7-------|-7-9b11---7-9b11-----7-9s11--|
|-------9-----7-9-|--------9--------7-9---------|
|-----------------|-----------------------------|
|-----------------|-----------------------------|
|
| E E E E E E E E   E E    E E E    E   E E
|-----------------|-----------------------------|
|-3-3-3-3-3-3-3-3-|-3-3----3-3-3----3---3-3-----|
|-0-0-0-0-0-0-0-0-|-0-0----0-0-0----0---0-0-----|
|-----------------|-----------------------------|
|-----------------|-----------------------------|
|-----------------|-----------------------------|
|
|   PM|   PM|   PM    PM---|   PM---|     PM
| E E E E E E E E   E E    E E E    E   E E
|-----------------|-----------------------------|
|-----------------|-----------------------------|
|-0-----0-----0---|-0--------0----------0-------|
|-0-----0-----0---|-0--------0----------0-------|
|-----------------|-----------------------------|
|-5-5-5-5-5-5-5-5-|-5-5----5-5-5----5---5-5-----|


 4/4
  Gtr I
   Q    S  S  Q    E  E  E        +E   +E   S  S  Q    E  E     E
|------------------------------|-------------------------------------|
|------------15------15-17b19==|=(17)r(17)-15----15------17b19-17b19-|
|-14---14-16------16-----------|--------------16------16-------------|
|------------------------------|-------------------------------------|
|------------------------------|-------------------------------------|
|------------------------------|-------------------------------------|
|
| Gtr II
|  E E  E     E E  E  E  E         E    E   E     E E  E  E     E
|------------------------------|-------------------------------------|
|--3-3--3-----3-3--3--3--3-----|---5----5---5-----5-5--5--5-----5----|
|--2-2--2-----2-2--2--2--2-----|---2----2---2-----2-2--2--2-----2----|
|------------------------------|-------------------------------------|
|------------------------------|-------------------------------------|
|------------------------------|-------------------------------------|
|
| Gtr III
|    PM|        PM|      PM             PM-|        PM|         PM
|  E E  E     E E  E  E  E         E    E   E     E E  E  E     E
|------------------------------|-------------------------------------|
|--3----------3-------3--------|-------------------------------------|
|--2----------2-------2--------|---2--------------2-------2----------|
|--0-0--0-----0-0--0--0--0-----|---2--------------2-------2----------|
|------------------------------|---0----0---0-----0-0--0--0-----0----|
|------------------------------|-------------------------------------|


    ~~~~     ~~
   +Q     E  H        +S   S    S  S  S  S  S  S  S  S  S  S  S  S  S  S  S  S
|----------------------------|---------------------------------------------------|
|-(17)---19-15-------(15)-15-|-------15-------15-------15-------15-17-19-17-15---|
|----------------------------|-14-16----14-16----14-16----14-16------------------|
|----------------------------|---------------------------------------------------|
|----------------------------|---------------------------------------------------|
|----------------------------|---------------------------------------------------|
|
|   E  E  E  E E E E   E        E     E     E     E     E     E     E     E
|----------------------------|---------------------------------------------------|
|---3--3--3--3-3-3-3---3-----|--3-----3-----3-----3-----3-----3-----3-----3------|
|---0--0--0--0-0-0-0---0-----|--0-----0-----0-----0-----0-----0-----0-----0------|
|----------------------------|---------------------------------------------------|
|----------------------------|---------------------------------------------------|
|----------------------------|---------------------------------------------------|
|
|      PM|     PM|     PM             PM---|            PM---|            PM
|   E  E  E  E E E E   E        E     E     E     E     E     E     E     E
|----------------------------|---------------------------------------------------|
|----------------------------|---------------------------------------------------|
|---0--------0-----0---------|--0-----------------0-----------------0------------|
|---0--------0-----0---------|--0-----------------0-----------------0------------|
|----------------------------|---------------------------------------------------|
|---5--5--5--5-5-5-5---5-----|--5-----5-----5-----5-----5-----5-----5-----5------|


 4/4
  Gtr I
             ~~~
   Q.        Q.      E  E    E      +E   +E   E  +Q     S  S  S  S
|-14b15-----14------12----|-15b17==(15)r(15)-----------------------|
|----------------------15-|------------------15-(15)------15-17-19-|
|-------------------------|----------------------------16----------|
|-------------------------|----------------------------------------|
|-------------------------|----------------------------------------|
|-------------------------|----------------------------------------|
|
| Gtr II
|  E    E E  E  E E  E  E    E       E    E   E   E  E  E     E
|-------------------------|----------------------------------------|
|--3----3-3--3--3-3--3--3-|--5-------5----5---5---5--5--5-----5----|
|--2----2-2--2--2-2--2--2-|--2-------2----2---2---2--2--2-----2----|
|-------------------------|----------------------------------------|
|-------------------------|----------------------------------------|
|-------------------------|----------------------------------------|
|
| Gtr III
|       PM|     PM|     PM           PM-|         PM-|        PM
|  E    E E  E  E E  E  E    E       E    E   E   E  E  E     E
|-------------------------|----------------------------------------|
|--3---------3-------3----|----------------------------------------|
|--2---------2-------2----|--2----------------2---------2----------|
|--0----0-0--0--0-0--0--0-|--2----------------2---------2----------|
|-------------------------|--0-------0----0---0---0--0--0-----0----|
|-------------------------|----------------------------------------|


                                                                       ~~~
   |--3--|  |--3--|  |--3--|              |--3--|  |--3--|
   S  S  S  S  S  S  S  S  S  T  T  T  T  S  S  S  S  S  S  E     E    H.            +E    E
|-15-14----------------15-14----------------------14-15-14-15b17-15-|-15------------(15)-------|
|-------17-15-14----14-------17-15-14----14-15-17-------------------|--------------------------|
|----------------16-------------------16----------------------------|--------------------------|
|-------------------------------------------------------------------|--------------------/16---|
|-------------------------------------------------------------------|--------------------------|
|-------------------------------------------------------------------|--------------------------|
|
|  E        E        E        E           E        E        E     E    E  E E E E E   E    E
|-------------------------------------------------------------------|--------------------------|
|--3--------3--------3--------3-----------3--------3--------3-----3-|--3--3-3-3-3-3---3----3---|
|--0--------0--------0--------0-----------0--------0--------0-----0-|--0--0-0-0-0-0---0----0---|
|-------------------------------------------------------------------|--------------------------|
|-------------------------------------------------------------------|--------------------------|
|-------------------------------------------------------------------|--------------------------|
|
|           PM------|                     PM------|               PM      PM|   PM|        PM
|  E        E        E        E           E        E        E     E    E  E E E E E   E    E
|-------------------------------------------------------------------|--------------------------|
|-------------------------------------------------------------------|--------------------------|
|--0--------------------------0-----------------------------0-------|--0------0-------0--------|
|--0--------------------------0-----------------------------0-------|--0------0-------0--------|
|-------------------------------------------------------------------|--------------------------|
|--5--------5--------5--------5-----------5--------5--------5-----5-|--5--5-5-5-5-5---5----5---|


 4/4
  Gtr I
              ~~~~~                            ~~~~
   Q    E     Q       +Q      E    Q    E  E  +Q.      E
|-------------------------------|------------------------|
|------15b17-15b17---(15)-------|-14---15-17-(17)--------|
|---------------------------/14-|---------------------14-|
|-12----------------------------|------------------------|
|-------------------------------|------------------------|
|-------------------------------|------------------------|
|
| Gtr II
|  E E  E     E    E   E  E   E    E E  E  E   E  E E  E
|-------------------------------|------------------------|
|--3-3--3-----3----3---3--3---3-|--5-5--5--5---5--5-5--5-|
|--2-2--2-----2----2---2--2---2-|--2-2--2--2---2--2-2--2-|
|-------------------------------|------------------------|
|-------------------------------|------------------------|
|-------------------------------|------------------------|
|
| Gtr III
|    PM|           PM|        PM     PM|       PM-|    PM
|  E E  E     E    E   E  E   E    E E  E  E   E  E E  E
|-------------------------------|------------------------|
|--3----------3-----------3-----|------------------------|
|--2----------2-----------2-----|--2-------2--------2----|
|--0-0--0-----0----0---0--0---0-|--2-------2--------2----|
|-------------------------------|--0-0--0--0---0--0-0--0-|
|-------------------------------|------------------------|


                |--3--|            |--3--|
   Q       +E   S  S  S  Q    +E   S  S  S    Q    E  E  +H
|-15b17---(15)-15-14----15---(15)-14-------|-----------------------*|
|--------------------15--------------17-15-|-14---15-12-(12)-------*|
|------------------------------------------|-----------------------*|
|------------------------------------------|-----------------------*|
|------------------------------------------|-----------------------*|
|------------------------------------------|-----------------------*|
|
|  E    E   E   E        E E   E   E          E E  E  E   E  E E E
|------------------------------------------|-----------------------*|
|--3----3---3---3--------3-3---3---3-------|--3-3--3--3---3--3-3-3-*|
|--0----0---0---0--------0-0---0---0-------|--0-0--0--0---0--0-0-0-*|
|------------------------------------------|-----------------------*|
|------------------------------------------|-----------------------*|
|------------------------------------------|-----------------------*|
|
|       PM|              PM|       PM           PM|       PM-|   PM
|  E    E   E   E        E E   E   E          E E  E  E   E  E E E
|------------------------------------------|-----------------------*|
|------------------------------------------|-----------------------*|
|--0------------0--------------0-----------|--0-------0--------0---*|
|--0------------0--------------0-----------|--0-------0--------0---*|
|------------------------------------------|-----------------------*|
|--5----5---5---5--------5-5---5---5-------|--5-5--5--5---5--5-5-5-*|


Duration Legend
---------------
W - whole; H - half; Q - quarter; E - 8th; S - 16th; T - 32nd; X - 64th; a - acciaccatura
+ - note tied to previous; . - note dotted; .. - note double dotted
Uncapitalized letters represent notes that are staccato (1/2 duration)
Irregular groupings are notated above the duration line
Duration letters will always appear directly above the note/fret number it represents the
duration for.  Duration letters with no fret number below them represent rests.  Multi-
bar rests are notated in the form Wxn, where n is the number of bars to rest for.  Low
melody durations appear below the staff

Tablature Legend
----------------
 h   - hammer-on
 p   - pull-off
 b   - bend
 pb  - pre-bend
 r   - bend release (if no number after the r, then release immediately)
 /\  - slide into or out of (from/to "nowhere")
 s   - legato slide
 S   - shift slide
  - natural harmonic
[n]  - artificial harmonic
n(n) - tapped harmonic
 ~   - vibrato
 tr  - trill
 T   - tap
 TP  - trem. picking
 PM  - palm muting
\n/  - tremolo bar dip; n = amount to dip
 \n  - tremolo bar down
 n/  - tremolo bar up
/n\  - tremolo bar inverted dip
 =   - hold bend; also acts as connecting device for hammers/pulls
 <>  - volume swell (louder/softer)
 x   - on rhythm slash represents muted slash
 o   - on rhythm slash represents single note slash

Misc Legend
-----------
 |  - bar
||  - double bar
||o - repeat start
o|| - repeat end
*|  - double bar (ending)
 :  - bar (freetime)
 $  - Segno
 &  - Coda
Tempo markers -  = BPM(8/16=s8/s16), where s8 = swing 8ths, s16 = swing 16ths


***************************************************************************************
* Generated using Power Tab Editor by Brad Larsen - http://powertab.guitarnetwork.org *
***************************************************************************************

            
            
Suggest correction
Creating personal tab
Creating personal tab
You can edit any tab online and save it as your Personal.

You can edit, replace or remove any tab part or add personal notes – all changes will be seen only by you.

Personal tabs can be accessed anytime from any device, even offline.
Learn more »
Give kudos to tab author, rate the tab!
1 2 3 4 5
comments
print report bad tab
guest
You may want to rate the tab now too:
select rating
Wanna post a correction for this tab? Suggest correction