Oops, an error
Loading. Please wait.

Seasons In The Sun Bass Tab

5,356 views 15 this week
2 commentsread comments
1 2 3 4 5
please rate
add to favorites
launch autoscroll
font size
0
reset
guitar tuner
Autoscroll
slow
fast
+/-
esc
set tempo
stop
Help us to improve Ultimate-Guitar.com Take our survey!
×
Author
Difficulty
intermediate
(Consider the letters in the tabs below like hexadecimal when it comes to determining 
fret is used. 0-9 is self-explanatory, A=10th fret, B=11th and so on.)

[INTRO]
                              Goodbye to you my trusted...

G:--------|--------|--------|--------|
D:--------|--------|--------|--------|
A:-----012|0----012|0----012|--------|
E:--------|--------|--------|2-------|

[VERSE]
  ...Friend                             We've known each other since we were 9 or 10

  Together we climbed hills and trees   Learned of love and ABCs

  Skinned our hearts and skinned our knees     Good bye my friend it's hard to...

G:--------|--------|--------|--------|--------|--------|--------|--------|
D:--------|4~~~~~~~|--------|6~~~~~~~|--------|4~~~~~~-|6-------|44--44--|
A:-------4|--------|-------6|--------|-------4|-------4|---64--4|---4---4|
E:--------|--------|--------|--------|--------|--------|--------|--------|

     F#                                     G#
  ...Die     When all the birds are singing in the sky
                                F#                              G#
  Now that the spring is in the air       Pretty girls are everywhere
  C#                         F#
     Think of me and I'll be there
  F#                G#                F#                G#       C#       F#
G:--------|--------|--------|--------|--------|--------|--------|--------|-----|
D:44--44--|44--44--|66--66--|66--66--|44--44--|44--44--|66--66--|--------|44---|
A:---4---4|---4---4|---6---6|---6---4|---4---4|---4---4|---6---6|44--44-4|--46-|
E:--------|--------|--------|--------|--------|--------|--------|---4----|-----|

[CHORUS]
         F#                    G#
  We had joy we had fun we had seasons in the sun
          C#                                             F#
  But the hills that we climbed were just seasons out of time

  Goodbye papa please pray for...

  F#       G#       C#       F#
G:--------|--------|--------|--------|--------|--------|
D:44--44--|66--66--|--------|---34---|--------|--------|
A:--46--46|--68--86|44--44--|446-----|-----012|--------|
E:--------|--------|--46--46|--------|--------|2-------|

[VERSE]
  ...me           I was the black sheep of the family

  You tried to teach me right from wrong    But too much wine and too much song

  Wonder how I got along                       Goodbye papa it's hard to...

G:--------|--------|--------|--------|--------|--------|--------|--------|
D:--------|4~~~~~~~|--------|6~~~~~~~|--------|4~~~~~~-|6-------|44--44--|
A:-------4|--------|-------6|--------|-------4|-------4|---64--4|---4---4|
E:--------|--------|--------|--------|--------|--------|--------|--------|

  F#                                         G#
  die         When all the birds are singing in the sky
                                F#                           G#
  Now that the spring is in the air     Little children everywhere
  C#                          F#
    When you see them I'll be there

  F#                G#                F#                G#       C#       F#
G:--------|--------|--------|--------|--------|--------|--------|--------|-----|
D:44--44--|44--44--|66--66--|66--66--|44--44--|44--44--|66--66--|--------|44---|
A:---4---4|---4---4|---6---6|---6---4|---4---4|---4---4|---6---6|44--44-4|--46-|
E:--------|--------|--------|--------|--------|--------|--------|---4----|-----|
[CHORUS]
         F#                    G#
  We had joy we had fun we had seasons in the sun
          C#                                          F#
  But the wine and the song like the seasons have all gone
         A                     B
  We had joy we had fun we had seasons in the sun
          E                                           A
  But the wine and the song like the seasons have all gone

  F#       G#       c#       F#       A        B        E        A
G:--------|--------|--------|--------|--------|--------|--------|--------|--------|--|
D:44--44--|66--66--|--------|---344--|77--77--|99--99--|--------|---67---|--------|--|
A:--46--46|--68--86|44--44--|446-----|--79--79|--9B--B9|77--77--|779-----|-----012|--|
E:--------|--------|--46--46|--------|--------|--------|--79--79|--------|--------|2-|

[VERSE]
  Goodbye Michelle my little one        You gave me love and helped me find a son

  And every time I was down             You would always come around and

  Get my feet back on the ground        Goodbye Michelle it's hard to...

G:--------|--------|--------|--------|--------|--------|--------|--------|
D:--------|4~~~~~~~|--------|6~~~~~~~|--------|4~~~~~~-|6-------|44--44--|
A:-------4|--------|-------6|--------|-------4|-------4|---64--4|---4---4|
E:--------|--------|--------|--------|--------|--------|--------|--------|

     F#                                                                   G#
  ...Die                                   When all the birds are singing in the sky
                                F#                          G#
  Now that the spring is in the air        With the flowers everywhere
  C#                             F#
    I wish that we could both be there

  F#                G#                F#                G#       C#       F#
G:--------|--------|--------|--------|--------|--------|--------|--------|-----|
D:44--44--|44--44--|66--66--|66--66--|44--44--|44--44--|66--66--|--------|44---|
A:---4---4|---4---4|---6---6|---6---4|---4---4|---4---4|---6---6|44--44-4|--46-|
E:--------|--------|--------|--------|--------|--------|--------|---4----|-----|

[CHORUS]
         F#                    G#
  We had joy we had fun we had seasons in the sun
          C#                             F#
  But the stars we could reach were just starfish on the beach
         A                     B
  We had joy we had fun we had seasons in the sun
          E                              A
  But the stars we could reach were just starfish on the beach

  F#       G#       c#       F#       A        B        E        A
G:--------|--------|--------|--------|--------|--------|--------|--------|
D:44--44--|66--66--|--------|---344--|77--77--|99--99--|--------|---677--|
A:--46--46|--68--86|44--44--|446-----|--79--79|--9B--B9|77--77--|779-----|
E:--------|--------|--46--46|--------|--------|--------|--79--79|--------|

         A#                    C
  We had joy we had fun we had seasons in the sun
          F                                           A#
  But the wine and the song like the seasons have all gone
          A#                      C
  All our lives we had fun we had seasons in the sun
          F                               A#
  But the hills that we climbed were just seasons out of time

  A#       C        F        A#       A#       C        F        A#
G:--------|--------|--------|--------|--------|--------|--------|--------|
D:88--88--|AA--AA--|--------|---78---|88--88--|AA--AA--|--------|---78---|
A:--8A--8A|--AC--CA|88--88--|88A-----|--8A--8A|--AC--CA|88--88--|88A-----|
E:--------|--------|--8A--8A|--------|--------|--------|--8A--8A|--------|

Tabbed by Michael Oxner (moxner@nbnet.nb.ca)
Corrected December 19th, 2014.
Suggest correction
Give kudos to tab author, rate the tab!
1 2 3 4 5
comments
print report bad tab
2 comments total.
0 reply
rheinlandklas 10 wrote on December 19 2014, 04:50 am

E-D-A-G ????

0 reply
MOxner 1,996 wrote on December 19 2014, 04:31 pm

Yeah. Oops. Standard Tuning. I'll fix it. Thanks.

guest
You may want to rate the tab now too:
select rating
Please do not post tabs as comments. Select "correction" instead!