Oops, an error
Loading. Please wait.

So What tab

version 1
version 1

Whole song

Interactive

by Tesla
355 views 1 this week
no commentswrite comment
1 2 3 4 5
3 more votes to show rating
add to favorites
×
Save as Personal and add changes to this tab that will be seen only by you. Learn more ›
×
You can save this tab as Personal to edit and correct it or add notes. All changes will be seen only by you. Learn more »
launch autoscroll
font size
0
reset
how to read this tab
guitar tuner
edit
Autoscroll
slow
fast
+/-
esc
set tempo
stop
tab by: behnam h.

Artist: tesla
Song: so what
Album: forever more

Emil: fixxxeroftherock@yahoo.com
----------------------------------------------------
Tune: Drop C#


 intro
|---------------------------------------------|
|---------------------------------------------|
|---------------------------------------------|
|-----x--x-x-6-6-x--x-x-9-9-x--x-x-4-4-x--x-x-|
|-4-4-x--x-x-4-4-x--x-x-7-7-x--x-x-2-2-x--x-x-|
|-4-4-x--x-x-----x--x-x-----x--x-x-----x--x-x-|

|------------------------------------|
|------------------------------------|
|------------------------------------|
|-----x--x-x-6-6-x--x-x-2------------|
|-4-4-x--x-x-4-4-x--x-x-2------------|
|-4-4-x--x-x-----x--x-x-2------------|


Riff a)
 Gtr. 1
|-------------------------------------------------------------------|
|-------------------------------------------------------------------|
|-5---5---9---9---4---4----7---7---5---5---9---9---4---4----7---7---|
|-7---7---9---9---5---5----7---7---5---5---9---9---4---4----7---7---|
|---7---7---7---7---5---5----5---5---7---7---7---7---5---5----5---5-|
|-------------------------------------------------------------------|
|Gtr. 2
|-------------------------------------------------------------------|
|-------------------------------------------------------------------|
|-------------------------------------------------------------------|
|-7-------------------9hbr----7-7-----------------------------------|
|---------------------------------------7---------------------------|
|-------------------------------------------------------------------|


Verse
|---------------------------------------------------|
|---------------------------------------------------|
|-5---5---9---9---4---4----7---7--------------------|
|-7---7---9---9---5---5----7---7--------(play x4)---|
|---7---7---7---7---5---5----5---5------------------|
|---------------------------------------------------|


Pre chorous
 Gtr. 1
|-------------------------------------------------------------------|
|-------------------------------------------------------------------|
|--------------------------------------------------PM.....----------|
|-3-----5--7--5-------7h9-7-5-------3-----5--7--5--2-2-2-2-2----x-7-|
|-3-----5--7--5-------7h9-7-5-------3-----5--7--5--2-2-2-2-2----x-7-|
|-3-----5--7--5-------7h9-7-5-------3-----5--7--5--2-2-2-2-2----x-7-|
|Gtr. 2
|-------------------------------------------------------------------|
|-------------------------------------------------------------------|
|-------------------------------------------------------------------|
|-------------------------------------------------------------------|
|-----------------------------------------------------2/7-7---------|
|-3-----5--7--5-----5-7h9-7-5-------3-----5--7--5--2/6----------x-7-|


Chorous 1
|---------------------------------------------|
|---------------------------------------------|
|---------------------------------------------|
|-----x--x-x-6-6-x--x-x-9-9-x--x-x-4-4-x--x-x-|
|-4-4-x--x-x-4-4-x--x-x-7-7-x--x-x-2-2-x--x-x-|
|-4-4-x--x-x-----x--x-x-----x--x-x-----x--x-x-|

|--------------------------------------------------------|
|--------------------------------------------------------|
|--------------------------------------------------------|
|-----x--x-x-6-6-x--x-x-2------------2------------x-7----|
|-4-4-x--x-x-4-4-x--x-x-2------------2------------x-7----|
|-4-4-x--x-x-----x--x-x-2------------2------------x-7----|

|---------------------------------------------|
|---------------------------------------------|
|---------------------------------------------|
|-----x--x-x-6-6-x--x-x-9-9-x--x-x-4-4-x--x-x-|
|-4-4-x--x-x-4-4-x--x-x-7-7-x--x-x-2-2-x--x-x-|
|-4-4-x--x-x-----x--x-x-----x--x-x-----x--x-x-|

|------------------------------------|
|------------------------------------|
|------------------------------------|
|-----x--x-x-6-6-x--x-x-2------------|
|-4-4-x--x-x-4-4-x--x-x-2------------|
|-4-4-x--x-x-----x--x-x-2------------|


Play riff a)
     Verse
     Pre chorous

Chorous 2
|---------------------------------------------|
|---------------------------------------------|
|---------------------------------------------|
|-----x--x-x-6-6-x--x-x-9-9-x--x-x-4-4-x--x-x-|
|-4-4-x--x-x-4-4-x--x-x-7-7-x--x-x-2-2-x--x-x-|
|-4-4-x--x-x-----x--x-x-----x--x-x-----x--x-x-|

 Gtr. 1
|--------------------------------------------------------|
|--------------------------------------------------------|
|--------------------------------------------------------|
|-----x--x-x-6-6-x--x-x-2------------2------------x-7----|
|-4-4-x--x-x-4-4-x--x-x-2------------2------------x-7----|
|-4-4-x--x-x-----x--x-x-2------------2------------x-7----|
|
|Gtr. 2
|--------------------------------------------------------|
|--------------------------------------------------------|
|-----------------------9---9-11--11-13-----13---13-14---|
|-----x--x-x-6-6-x--x-x----------------------------------|
|-4-4-x--x-x-4-4-x--x-x-7---7-9---9--11-----11---11-12---|
|-4-4-x--x-x-----x--x-x----------------------------------|

|---------------------------------------------|
|---------------------------------------------|
|---------------------------------------------|
|-----x--x-x-6-6-x--x-x-9-9-x--x-x-4-4-x--x-x-|
|-4-4-x--x-x-4-4-x--x-x-7-7-x--x-x-2-2-x--x-x-|
|-4-4-x--x-x-----x--x-x-----x--x-x-----x--x-x-|

|-------------------------------|
|-------------------------------|
|-------------------------------|
|-----x--x-x-6-6-x--x-x---------|
|-4-4-x--x-x-4-4-x--x-x---------|
|-4-4-x--x-x-----x--x-x---------|


Solo
 Gtr. 1
|------------------------------------------------------|
|------------------------------------------------------|
|------------------------------------------------------|
|-0----0----0-----0-2----2----2----2-----(play x3)-----|
|-0----0----0-----0-2----2----2----2-------------------|
|-0----0----0-----0-2----2----2----2-------------------|

|--------------------------------------------------------------|
|--------------------------------------------------------------|
|--------------------------------------------------------------|
|-0----0----0----0-11----11-11-11-11-11-11-11-11-11-11-11-11---|
|-0----0----0----0-11----11-11-11-11-11-11-11-11-11-11-11-11---|
|-0----0----0----0-11----11-11-11-11-11-11-11-11-11-11-11-11---|


 Gtr. 2
|--------------------------------------------------------------|
|-10-10-10---9-9-9----10--10-----10-10-10---9-9-9---10---10----|
|-7--7--7----7-7-7----7---7------9--9--9----9-9-9---9----9-----|
|--------------------------------------------------------------|
|--------------------------------------------------------------|
|--------------------------------------------------------------|

|--------------------------------------------------------------|
|-10-10-10---9-9-9----10-----9------10----9--------------------|
|-7--7--7----7-7-7----7------9------9-----9--------------------|
|--------------------------------------------------------------|
|--------------------------------------------------------------|
|--------------------------------------------------------------|

|--------------------------------------------------------------|
|-10-10-10---9-9-9----10--10-----10-10-10---9-9-9---10---10----|
|-7--7--7----7-7-7----7---7------9--9--9----9-9-9---9----9-----|
|--------------------------------------------------------------|
|--------------------------------------------------------------|
|--------------------------------------------------------------|

|-----------------------------------|
|-10-10-10---9-9-9----10-----9------|
|-7--7--7----7-7-7----7------6------|
|-----------------------------------|
|-----------------------------------|
|-----------------------------------|

|-----------------------------------------|
|-7-6-7-6-6-6-6-6-6-6-6-6----18--18-------|
|-6-6-6-6-6-7-4-6-7-6-4-6----18--18-------|
|-----------------------------------------|
|-----------------------------------------|
|-----------------------------------------|


Chorous 3
|---------------------------------------------|
|---------------------------------------------|
|---------------------------------------------|
|-----x--x-x-6-6-x--x-x-9-9-x--x-x-4-4-x--x-x-|
|-4-4-x--x-x-4-4-x--x-x-7-7-x--x-x-2-2-x--x-x-|
|-4-4-x--x-x-----x--x-x-----x--x-x-----x--x-x-|

|--------------------------------------------------------|
|--------------------------------------------------------|
|--------------------------------------------------------|
|-----x--x-x-6-6-x--x-x-2------------2------------x-7----|
|-4-4-x--x-x-4-4-x--x-x-2------------2------------x-7----|
|-4-4-x--x-x-----x--x-x-2------------2------------x-7----|

|---------------------------------------------|
|---------------------------------------------|
|---------------------------------------------|
|-----x--x-x-6-6-x--x-x-9-9-x--x-x-4-4-x--x-x-|
|-4-4-x--x-x-4-4-x--x-x-7-7-x--x-x-2-2-x--x-x-|
|-4-4-x--x-x-----x--x-x-----x--x-x-----x--x-x-|

 Gtr. 1
|--------------------------------------------------------|
|--------------------------------------------------------|
|--------------------------------------------------------|
|-----x--x-x-6-6-x--x-x-2------------2------------x-7----|
|-4-4-x--x-x-4-4-x--x-x-2------------2------------x-7----|
|-4-4-x--x-x-----x--x-x-2------------2------------x-7----|
|
|Gtr. 2
|--------------------------------------------------------|
|--------------------------------------------------------|
|-----------------------9---9-11--11-13-----13---13-14---|
|-----x--x-x-6-6-x--x-x----------------------------------|
|-4-4-x--x-x-4-4-x--x-x-7---7-9---9--11-----11---11-12---|
|-4-4-x--x-x-----x--x-x----------------------------------|

|---------------------------------------------|
|---------------------------------------------|
|---------------------------------------------|
|-----x--x-x-6-6-x--x-x-9-9-x--x-x-4-4-x--x-x-|
|-4-4-x--x-x-4-4-x--x-x-7-7-x--x-x-2-2-x--x-x-|
|-4-4-x--x-x-----x--x-x-----x--x-x-----x--x-x-|

|--------------------------------------------------------|
|--------------------------------------------------------|
|--------------------------------------------------------|
|-----x--x-x-6-6-x--x-x-2------------2------------x-7----|
|-4-4-x--x-x-4-4-x--x-x-2------------2------------x-7----|
|-4-4-x--x-x-----x--x-x-2------------2------------x-7----|

|---------------------------------------------|
|---------------------------------------------|
|---------------------------------------------|
|-----x--x-x-6-6-x--x-x-9-9-x--x-x-4-4-x--x-x-|
|-4-4-x--x-x-4-4-x--x-x-7-7-x--x-x-2-2-x--x-x-|
|-4-4-x--x-x-----x--x-x-----x--x-x-----x--x-x-|

|------------------------------------|
|------------------------------------|
|------------------------------------|
|-----x--x-x-6-6-x--x-x-0------------|
|-4-4-x--x-x-4-4-x--x-x-0------------|
|-4-4-x--x-x-----x--x-x-0------------|
Suggest correction
Creating personal tab
Creating personal tab
You can edit any tab online and save it as your Personal.

You can edit, replace or remove any tab part or add personal notes – all changes will be seen only by you.

Personal tabs can be accessed anytime from any device, even offline.
Learn more »
Give kudos to tab author, rate the tab!
1 2 3 4 5
comments
print report bad tab
guest
You may want to rate the tab now too:
select rating
Wanna post a correction for this tab? Suggest correction